Oops, an error
Loading. Please wait.

Madeleine chords

508 views 1 this week
no commentswrite comment
1 2 3 4 5
x 3
add to favorites
×
Save as Personal and add changes to this tab that will be seen only by you. Learn more ›
×
You can save this tab as Personal to edit and correct it or add notes. All changes will be seen only by you. Learn more »
launch autoscroll
font size
0
reset
transpose
0
reset
display chords
guitar tuner
edit
Autoscroll
slow
fast
+/-
esc
set tempo
stop
About this tab version
Explain why your version is different. Was this info helpful? Yes No
Strumming
There is no strumming pattern for this song yet. and get +5 IQ
SONG:   MADELEINE
ARTIST: BLOSSOMS
TAB BY: DON CZARSKI
EMAIL:  GUITARZAN7@HOTMAIL.COM


                    MADELEINE
                    BLOSSOMS


INTRO:
F#m     G
Ooo-ooo-oo-oo-oo
F#m     G        A
Ooo-ooo-oo-oo-oo

   Bm        G   A      
E -----6/7-7--------------
B ------------------------
G -4-4-------7-7-6-7-6----
D ---------------------7--
A ------------------------
E ------------------------

   Bm        G   A      
E -----6/7-7--------------
B ------------------------
G -4-4-------7-7-6-7-6----
D ---------------------7--
A ------------------------
E ------------------------

   Bm        G   A      
E -----6/7-7--------------
B ------------------------
G -4-4-------7-7-6-7-6----
D ---------------------7--
A ------------------------
E ------------------------

   Bm        G   A      Bm
E -----6/7-7---------------
B -------------------------
G -4-4-------7-7-6-7-6---4-
D ---------------------7---
A -------------------------
E -------------------------


VERSE:
     Bm            G          A         F#m
I'm gone into the night, Madeline on my mind
           Bm                  G           A         F#m
But she's late, the sky needs rain, you remain on my mind
       Bm              G           A                F#m
And I know when she's gone, she's gone, I know shes gone
       Bm                   G           A                F#m
And I know that when she's gone, she's gone, I know shes gone


CHORUS:
      G     A                  Em
Madeleine, you don't know what you do
 A
When can I be yours? 
      G         D          A          Bm   
Madeleine, Madeleine, Madeleine, Madeleine


INSTRUMENTAL:
   Bm        G   A      
E -----6/7-7--------------
B ------------------------
G -4-4-------7-7-6-7-6----
D ---------------------7--
A ------------------------
E ------------------------

   Bm        G   A      
E -----6/7-7--------------
B ------------------------
G -4-4-------7-7-6-7-6----
D ---------------------7--
A ------------------------
E ------------------------

   Bm        G   A      
E -----6/7-7--------------
B ------------------------
G -4-4-------7-7-6-7-6----
D ---------------------7--
A ------------------------
E ------------------------

   Bm        G   A      Bm
E -----6/7-7---------------
B -------------------------
G -4-4-------7-7-6-7-6---4-
D ---------------------7---
A -------------------------
E -------------------------


VERSE:
          Bm             G               A                F#m
And this time, if I put right, will you stay, will you be mine?
           Bm                G               A               F#m
It's your touch, without a trace, I saw her face, it's in my love
      Bm                     G           A                 F#m
And I know, that when she's gone, she's gone, I know she's gone
      Bm                     G           A                 F#m
And I know, that when she's gone, she's gone, I know she's gone


CHORUS:
      G     A                  Em
Madeleine, you don't know what you do
 A
When can I be yours? 
      G         D          A         F#m
Madeleine, Madeleine, Madeleine, Madeleine


OUTRO:
F#m     G
Ooo-ooo-oo-oo-oo  
     F#m
Madeleine

F#m     G        A
Ooo-ooo-oo-oo-oo

G  A 
Em
A

SOLO:
G  A  Em  A
G  D  A  Bm

   Bm        G   A      
E -----6/7-7--------------
B ------------------------
G -4-4-------7-7-6-7-6----
D ---------------------7--
A ------------------------
E ------------------------

   Bm        G   A      
E -----6/7-7--------------
B ------------------------
G -4-4-------7-7-6-7-6----
D ---------------------7--
A ------------------------
E ------------------------

   Bm        G   A      
E -----6/7-7--------------
B ------------------------
G -4-4-------7-7-6-7-6----
D ---------------------7--
A ------------------------
E ------------------------

   Bm        G   A       E
E -----6/7-7---------------
B -------------------------
G -4-4-------7-7-6-7-6---4-
D ---------------------7---
A -------------------------
E -------------------------

            
            
Suggest correction
Creating personal tab
Creating personal tab
You can edit any tab online and save it as your Personal.

You can edit, replace or remove any tab part or add personal notes – all changes will be seen only by you.

Personal tabs can be accessed anytime from any device, even offline.
Learn more »
Give kudos to tab author, rate the tab!
1 2 3 4 5
comments
print report bad tab
guest
You may want to rate the tab now too:
select rating
Wanna post a correction for this tab? Suggest correction