Oops, an error
Loading. Please wait.

Best In Me tab

version 1
version 1

Whole song

by Blue
56,223 views 6 this week
1 commentread comment
1 2 3 4 5
x 3
add to favorites
×
Save as Personal and add changes to this tab that will be seen only by you. Learn more ›
×
You can save this tab as Personal to edit and correct it or add notes. All changes will be seen only by you. Learn more »
launch autoscroll
font size
0
reset
how to read this tab
guitar tuner
edit
Autoscroll
slow
fast
+/-
esc
set tempo
stop
Author
Unregistered
Hiya, for those of you who dont know, blue are the UK's premier boy band at the
moment in time. This is the tab for an album track called "best in me", the video
was all over music tv but never released as a single. I really like this song but
have not managed to figure out the chorus yet but so far this is what it goes like...

[Intro]
e|---------3----------0-------------3----------0-------------------------------|
B|--------3----------1-------------3----------1--------------------------------|
G|------3---------2--------------3----------2----------------------------------|
D|----5---------2-------------5-----------2------------------------------------|
A|--5--------0-------------5-----------0---------------------------------------|
E|-----------------------------------------------------------------------------|

[Verse 1](INTRO CHORDS)
From the moment I met you I knew youd be mine
You touched my hand and I knew this was gonna be our time

[Pre-Chorus]
BM7                              E7
I dont ever want to lose this feeling
F                               G
I dont want to spend a moment apart

[CHORUS] (Not figured this part out as yet)
Cos you bring out the best in me
Like no one else can do
thats why Im by your side
And thats why I love you

e|---------3----------0-------------3----------0-------------------------------|
B|--------3----------1-------------3----------1--------------------------------|
G|------3---------2--------------3----------2----------------------------------|
D|----5---------2-------------5-----------2------------------------------------|
A|--5--------0-------------5-----------0---------------------------------------|
E|-----------------------------------------------------------------------------|

[Verse 2](INTRO CHORDS)
Every day that Im here with you I know that It feels right (So right)
Cos Ive just got to be near to you every day and every night (Every Night)

(these chords picked on same strings as intro but join the F and G together by
going back on the e,b,g strings)

[Pre-Chorus]
BM7                             E7
And you know that we belong together
F                         G
It just had to be you and me

[Chorus]
Cos you bring out the best in me
Like no one else can do
thats why Im by your side
And thats why I love you

[Pre-Chorus] (Chorus chords)
BM7                              E7
And you know that we belong together
F                         G
It just had to be you and me

[Middle 8]
Cos you bring out the best in me
Like no one else can do
thats why Im by your side

[Chorus]
You bring out the best in me
Like no one else can do
Thats why Im by your side
And thats why I love you (love you, love you, love you Baby)

You bring out the best (you bring out the best in me) the best in me
Like no one else can do.....
And thats why Im by your side

And thats why I love you...
[End]


I know that in the chorus there is A D, A G A Cadd9 amongst other chords but
cant quite figure out where....

            
            
Suggest correction
Creating personal tab
Creating personal tab
You can edit any tab online and save it as your Personal.

You can edit, replace or remove any tab part or add personal notes – all changes will be seen only by you.

Personal tabs can be accessed anytime from any device, even offline.
Learn more »
Give kudos to tab author, rate the tab!
1 2 3 4 5
comments
print report bad tab
1 comment total.
0 reply
shadowfox7 10 Oct 05, 2005 06:22 PM

its a pice of junk its soppose to be C9 Am only check your work dude

guest
Wanna post a correction for this tab? Suggest correction