Oops, an error
Loading. Please wait.

Eyes On Fire bass

version 2
version 2

Whole song

Interactive

6,721 views 18 this week
1 commentread comment
1 2 3 4 5
x 7
add to favorites
×
Save as Personal and add changes to this tab that will be seen only by you. Learn more ›
×
You can save this tab as Personal to edit and correct it or add notes. All changes will be seen only by you. Learn more »
launch autoscroll
font size
0
reset
guitar tuner
edit
Autoscroll
slow
fast
+/-
esc
set tempo
stop
Author
Difficulty
Made a few mistakes in the las one, but it was my first so it wasnt going to be perfect. 
and a friend went through it all and here is a much much better tablature for it :D enjoy:

 Intro
|------------------------------------------| (just this part)
|------------------------------------------| (x3)
|--------6--------4--2-----2---------------|
|--6--6-----2--2--------2----2-------------|

|----------------------------------------|
|----------------------------------------|
|--------6--------4--2-----2-2-2---------|
|--6--6-----2--2-------------------------|


I seek you out…
|----------------------------------------|
|----------------------------------------|
|--------6--------4--2-----2-------------|
|--6--6-----2--2--------2----2-----------|

|----------------------------------------|
|----------------------------------------| (both parts)
|--------6--------4--2-----2-2-2---------| (x2)
|--6--6-----2--2-------------------------|


I will sooth you vein…
|----------------------|
|----------------------|
|---6------6-----------|
|----------------------|


You’ll be waiting in vein…
|----------------------------------------|
|----------------------------------------|
|--------6--------4--2-----2-------------|
|-----6-----2--2--------2----2-----------|

|----------------------------------------|
|----------------------------------------|
|--------6--------4--2-----2-2-2---------|
|--6--6-----2--2-------------------------|




I’m taking it slow…
|------------------|
|------------------|
|--6--9--2--1------|
|------------------|

|------------------|
|------------------|
|--6----9----2-----|
|------------------|

I wont sooth your pain…
|----------------------------------------|
|----------------------------------------|
|--6-6-6-6--9-9-9-9--2-2-2-2-2-2-2-2-----|
|----------------------------------------|


Eyes on fire…
|---------------------------------------|
|---------------------------------------|
|--6-6-6-6--9-9-9-9--2-2-2-2--1-1-1-1---|
|---------------------------------------|

|---------------------------------------|
|---------------------------------------|
|--6-6-6-6--9-9-9-9--2-2-2-2-2-2-2-2----|
|---------------------------------------|

            
            
Suggest correction
Creating personal tab
Creating personal tab
You can edit any tab online and save it as your Personal.

You can edit, replace or remove any tab part or add personal notes – all changes will be seen only by you.

Personal tabs can be accessed anytime from any device, even offline.
Learn more »
comments
print report bad tab
1 comment total.
0 reply
Random373 31 Jun 30, 2014 03:09 PM

Really helped, great tab, very accurate but lyrics aren't right. All in all great tab - keep it up

guest
You may want to rate the tab now too:
select rating
Wanna post a correction for this tab? Suggest correction