Oops, an error
Loading. Please wait.

Congratulations Acoustic tab

version 3
version 3

Whole song

231 views 3 this week
no commentswrite comment
1 2 3 4 5
1 last vote to show rating
add to favorites
×
Save as Personal and add changes to this tab that will be seen only by you. Learn more ›
×
You can save this tab as Personal to edit and correct it or add notes. All changes will be seen only by you. Learn more »
launch autoscroll
font size
0
reset
how to read this tab
guitar tuner
edit
Autoscroll
slow
fast
+/-
esc
set tempo
stop
Author
Blue October
Congratulations (Acoustic)
Congratulations (Acoustic)

E------------------------------------------|
B----------------------------------------2-|
G----9--8-------9--8-------9--8--------2---|
D------------------------------------2-----|
A-7----------7----------7----------0-------|
E------------------------------------------|
Is that seat taken? Congratulations. Would you like to take a walk with me?
My mind, it kind of goes fast but I'll try to slow it down for you.
You think that we could take a drive? I wanted to give you something...

(I came to see the light in my best friend. You seem as happy as you've ever been.
My chance of being open is broken and now you're Mrs. Him.
My words they don't come out right. Look I'll try to say I'm happy for you.
And I think I'm gonna take that drive. I wanted to give you something...)

E-------------------|
B-------2----------4|
G-----2----------4--|
D---2----------4----|
A-0----------2------|
E-------------------|
I've been wanting to give to you for years. My...

E--------------------------------------|
B-----------------4----------2---------|
G-------1------4-----------2-----2---2-|
D-----2------4-----------2---------2---|
A---2------------------0---------------|
E-0------------------------------------|
Heart... Here is my heart.

My heart, my pain won't cover up. You left me. Oh.
My heart can't take this cover up. You left me. Oh.

(Heart... My heart.)

((I can't take this. I could never take it back but now I can't change your mind.
I can't take this. I could never take it back but now I can't change your mind.
I can't change your heart. Change your heart.))

((You left me. Oh.))

E----------------------------------------------------------0-|
B-------4--------------------5-----------------------------0-|
G-----4-----4---4----------5-----5---5------------1--------1-|
D---4---------4----------5---------5------------2----2-----2-|
A-2--------------------3----------------------2--------2---2-|
E-------------------------------------------0--------------0-|
Make it go away. Please.

Questions?
Email at cory.roesch@yahoo.com

            
            
Suggest correction
Creating personal tab
Creating personal tab
You can edit any tab online and save it as your Personal.

You can edit, replace or remove any tab part or add personal notes – all changes will be seen only by you.

Personal tabs can be accessed anytime from any device, even offline.
Learn more »
Give kudos to tab author, rate the tab!
1 2 3 4 5
comments
print report bad tab
guest
You may want to rate the tab now too:
select rating
Wanna post a correction for this tab? Suggest correction