Oops, an error
Loading. Please wait.
We have an official Say It tab made by UG professional guitarists. Check out the tab »
×
36,544 views 18 this week
4 commentsread comments
1 2 3 4 5
x 17
add to favorites
×
Save as Personal and add changes to this tab that will be seen only by you. Learn more ›
×
You can save this tab as Personal to edit and correct it or add notes. All changes will be seen only by you. Learn more »
launch autoscroll
font size
0
reset
how to read this tab
guitar tuner
edit
Autoscroll
slow
fast
+/-
esc
set tempo
stop
Author
Blue October
Say It
Approaching Normal

Update - July 21, 2010
I listened to the song more and more and realized 
that guitar 2 doesn't do power chords and instead 
it's just single notes. I won't go through and change
it all but play it either way. I think it sounds cooler
the way I have it tabbed but it's actually just single notes
for guitar two.

[Intro]
guitar 1

e|--------------------------------|
B|--------------------------------|
G|--------------------------------|
D|-3333333322222222777777777777777|
A|-3333333322222222777777777777777|
E|-1111111100000000555555555555555|

guitar 2

e|----------------------------------------------|
B|----------------------------------------------|
G|-------9-9------------------------------------|
D|-10-10-----9-9-10-10-10-10-10-10-10-10h12-9-9-|
A|----------------------------------------------|
E|----------------------------------------------|

e|-----------------------------------------------|
B|-----------------------------------------------|
G|-----9-9-------------------------------------9-|
D|-9-9-----9-9-10-10-10-10-10-10h12~-10~-10-10---|
A|-----------------------------------------------|
E|-----------------------------------------------|

e|---------------------------------------------------------|
B|---------------------------------------------------------|
G|-9-------------------------------------------9-9-----7b~-|
D|---9-9-10-10-10-10-10-10-10-10-10h12-9-9-9-9-----9-9-----|
A|---------------------------------------------------------|
E|---------------------------------------------------------|


[Verse 1]
bass

 [Chorus]
 guitar 1
e|--------------------------------|
B|--------------------------------|
G|--------------------------------|
D|-3333333322222222777777777777777|
A|-3333333322222222777777777777777|
E|-1111111100000000555555555555555|

 guitar 2
e|------------|
B|------------|
G|-5-7-9-12-9-|
D|-x-x-x--x-x-|
A|-3-5-7-10-7-|
E|------------|
3x then

e|-----------|
B|-----------|
G|-5-4-5-4-2-|
D|-x-x-x-x-x-|
A|-3-2-3-2-0-|
E|-----------|

[Post-Chorus]

e|---------------------------------------------------------------|
B|---------------------------------------------------------------|
G|------9-9------------------------------------------9-9-----7b~-|
D|-10-10----9-9-10-10-10-10-10-10-10-10-10h12-9-9-9-9----9-9-----|
A|---------------------------------------------------------------|
E|---------------------------------------------------------------|

[Verse 2]

e|------3-0------0---|
B|-1p0h1----1p0h1--0-|
G|-------------------|
D|-------------------|
A|-------------------|
E|-------------------|

[Chorus]

[Post-Chorus]

 [Break]
 guitar 1
e|-------------------------|
B|-------------------------|
G|-------------------------|
D|-333333335555555577777777|
A|-333333335555555577777777|
E|-111111113333333355555555|

 guitar 2
e|------------------|
B|------------------|
G|-121212-10-9-10-9-|
D|------------------|
A|------------------|
E|------------------|

e|------------|
B|------------|
G|-5-7-9-10-9-|
D|-x-x-x--x-x-|
A|-3-5-7--8-7-|
E|------------|


[Chorus]

[Outro] 
guitar 1

e|--------------------------------|
B|--------------------------------|
G|--------------------------------|
D|-3333333322222222777777777777777|
A|-3333333322222222777777777777777|
E|-1111111100000000555555555555555|

 guitar 2
e|---------------------------------|
B|---------------------------------|
G|-5-7-9-12-9~-5-4-5-4-2~-2~-4~-2~-|
D|-x-x-x--x-x~-x-x-x-x-x--x--x--x--|
A|-3-5-7-10-7~-3-2-3-2-0~-0~-2~-0~-|
E|---------------------------------|

e|----------------------------------------|
B|----------------------------------------|
G|-557799101210910121099-7799779977997799-|
D|-xxxxxx-x-x-xx-x-x-xxx-xxxxxxxxxxxxxxxx-|
A|-335577-810-87-810-877-5577557755775577-|
E|----------------------------------------|

e|----------------------------|
B|----------------------------|
G|-55994455555555/7444499447b~|
D|-xxxxxxxxxxxxxx/xxxxxxxxxx--|
A|-33772233333333/5222277225b~|
E|----------------------------|



************************************

| h  Hammer-on
| ~  Vibrato
| x  Dead note
| p  Pull-off
| /  Slide up
| b  bend

************************************

            
            
Suggest correction
Creating personal tab
Creating personal tab
You can edit any tab online and save it as your Personal.

You can edit, replace or remove any tab part or add personal notes – all changes will be seen only by you.

Personal tabs can be accessed anytime from any device, even offline.
Learn more »
comments
print report bad tab
4 comments total. Showing first comments.
-1 reply
coldfry1 2,158 Oct 12, 2009 07:59 AM

thanks for the ratings everyone!

0 reply
Taddel 40 Sep 02, 2012 08:14 AM

awesome Tab!!! =)

0 reply
vegos 230 Dec 05, 2016 02:14 PM

Excellent tab!
I think there is a part at outro like this:

e------------------|-----------------|---------------------|
B--13-12-10--------|--13-12-10-12-9--|--13--12--10-9-9-10--|
G-----------12 10--|-----------------|---------------------|
D------------------|-----------------|---------------------|
A------------------|-----------------|---------------------|
E------------------|-----------------|---------------------|

guest
You may want to rate the tab now too:
select rating
Wanna post a correction for this tab? Suggest correction