Oops, an error
Loading. Please wait.

The Scar tab

1,187 views 1 this week
6 commentsread comments
1 2 3 4 5
x 7
add to favorites
×
Save as Personal and add changes to this tab that will be seen only by you. Learn more ›
×
You can save this tab as Personal to edit and correct it or add notes. All changes will be seen only by you. Learn more »
launch autoscroll
font size
0
reset
how to read this tab
guitar tuner
edit
Autoscroll
slow
fast
+/-
esc
set tempo
stop
Author
Blue October
The Scar
The Scar - Single

Note - This is the single released Dec. 2012. Not the acoustic 5591 version.

Intro:
E---------------------------------------------------------------------|
B-----1-------1------1-------1-------3---3h5-5--5-33/1----1-------0---|
G-------0--------------2---2---2---5---5------5----------2----------0-|
D---2------2-------2----2--------0---------------------3--------2-----|
A-3------3-----2-0------------------------------------------0h2-------|
E---------------------------------------------------------------------|

E----------------------------------------------------------------|
B-----1-----1---------1-------1-------3---3h5-5--5-33/1----1-----|
G-------0--0-0----------2---2---2---5---5------5----------2------|
D---2---------------2----2--------0---------------------3--------|
A-3------3----3-2-0------------------------------------------0h2-|
E----------------------------------------------------------------|

Verse 1:
E-------------------------------------------------------------|
B-----1-----------1------1--------3-----3--------1--------0---|
G-------0-----------2------2----5---5-----5----2------------0-|
D---2-----------2-----2-------0------0-------3----------2-----|
A-3-------3---0------------------------------------0h2--------|
E-------------------------------------------------------------|

E------------------------------------------------------|
B-----1------1-------1----1-------3-----3--------1-----|
G-------0------0------2-----2---5---5-----5----2-------|
D---2--------------2----2-----0-------0------3---------|
A-3-------3------0---------------------------------0h2-|
E------------------------------------------------------|

Chorus:
E-----------------------------------------------------------------------|
B-----1-----1---------1-------1-------3---3h5-5--5-33/1----1--------0---|
G-------0--0-0----------2---2---2---5---5------5----------2-----------0-|
D---2---------------2----2--------0---------------------3---------2-----|
A-3------3----3-2-0------------------------------------------0h2--------|
E-----------------------------------------------------------------------|

E----------------------------------------------------------------|
B-----1-----1---------1-------1-------3---3h5-5--5-33/1----1-----|
G-------0--0-0----------2---2---2---5---5------5----------2------|
D---2---------------2----2--------0---------------------3--------|
A-3------3----3-2-0------------------------------------------0h2-|
E----------------------------------------------------------------|

Verse 2:
E----------------------------------------------------------|
B-----1-----------1------------3-----3--------1--------0---|
G-------0-----------2--------5---5-----5----2------------0-|
D---2-----------2-----2----0------0-------3----------2-----|
A-3-------3---0---------------------------------0h2--------|
E----------------------------------------------------------|

E-------------------------------------------------------|
B-----1-----1--------1------1-------3------3------1-----|
G-------0----0---------2--2---2---5---5---------2-------|
D---2--------------2----2-------0-------0-----3---------|
A-3------3-----3-0----------------------------------0h2-|
E-------------------------------------------------------|

Break: Starting after "All I knew was down."
E-----------------------------------------------------------|
B-----1-----------1------------3------3--------1--------0---|
G-------0-----------2--------5---5--5---5----2------------0-|
D---2-----------2-----2----0------0--------3----------2-----|
A-3-------3---0-----------------------------------0h2-------|
E-----------------------------------------------------------|

Outro:
E-----------------------------------------------------------------------------------|
B------1-----------------1----------------------------------------------------------|
G--------------------------------------------2----------------2----------------2----|
D-0h2----------------0h2-----------------0h2---2----------0h2-----------------0--2--|
A--------0h2--2--2---------0h2---2--2--2----------2--2--2------0h2--2---2---2-------|
E------------0-00---------------0-00-00---------00-00-00-----------0--00--00------0-|

Questions?
Email at cory.roesch@yahoo.com

            
            
Suggest correction
Creating personal tab
Creating personal tab
You can edit any tab online and save it as your Personal.

You can edit, replace or remove any tab part or add personal notes – all changes will be seen only by you.

Personal tabs can be accessed anytime from any device, even offline.
Learn more »
comments
print report bad tab
6 comments total. Showing first comments.
0 reply
DdrummerM92 10 Dec 30, 2013 11:06 AM

this tab is 75% wrong

0 reply
coldfry1 2,158 Dec 30, 2013 11:17 AM

Lol you Must Not Know How To Play Guitar Then. If Its So Wrong Turn Make A Better One

0 reply
DdrummerM92 10 Jan 09, 2014 08:41 AM

I submitted my tab. give it a couple days but keep an eye out for it. its the way it should be tabbed. Not doubting your skills as a player I just know how this one goes and this isn't it

guest
You may want to rate the tab now too:
select rating
Wanna post a correction for this tab? Suggest correction