Oops, an error
Loading. Please wait.

Head Over Heels bass

1,396 views 3 this week
2 commentsread comments
1 2 3 4 5
3 more votes to show rating
add to favorites
×
Save as Personal and add changes to this tab that will be seen only by you. Learn more ›
×
You can save this tab as Personal to edit and correct it or add notes. All changes will be seen only by you. Learn more »
launch autoscroll
font size
0
reset
guitar tuner
edit
Autoscroll
slow
fast
+/-
esc
set tempo
stop
Author
From "Five Days in May" album 1993
4-string bass, standard tuning

Intro:
  [guitar riff]   A  AE
G:-------|-------|-------|-------|-------|-------|
D:-------|-------|----2--|----2--|----2--|----2--|
A:-------|---12\0|0--0---|0--0---|0--0---|0--0---|
E:-------|-------|-------|-------|-------|-------|

Verse 1 (Repeat 2x):
"Sun breaks..."
"Watchin' the rain..."
  A  AE           B  BF#          E  EB           A  AE
G:-------|-------|-------|-------|-------|-------|-------|-------|
D:----2--|----2--|-------|-------|-------|-------|----2--|----2--|
A:0--0---|0—0----|2--2---|2--2---|----2--|----2--|0--0---|0—0----|
E:-------|-------|----2--|----2--|0--0---|0--0---|-------|-------|

Prechorus:
"Oh-o walking and talking..."
  F#       D       A       E       F#      D       A        E
G:--------|-------|-------|-------|-------|-------|--------|-------|
D:--------|-------|-------|-------|-------|-------|--------|-------|
A:-------4|5--5-5-|-------|7--7-7-|-------|5--5-5-|-------5|7--7-7-|
E:2--2-2--|-------|5--5-5-|-------|2--2-2-|-------|5--5-5--|-------|

Chorus:
"Oh-o, that's the way..."
  A        E       F#       D       A        E       A
G:--------|-------|--------|-------|--------|-------|--------|
D:--------|-------|--------|-------|--------|-------|--------|
A:-------5|7--7-7-|-------4|5--5-5-|-------5|7--7-7-|--------|
E:5--5-5--|-------|2--2-2--|-------|5--5-5--|-------|5--5-5--|

Bass riff:
G:---------------------|
D:---11-9--------------|
A:-9------11-9---------|
E:-------------11-9-11-|

Verse 1 (Repeat 2x)
"I guess..."
"I'm torn apart..."

Prechorus
Chorus
[Short bass riff]
Prechorus [organ solo], end with:
  A           A
G:---------|7/14-----|
D:---------|---------|
A:---------|---------|
E:5--------|---------|

Verse 1 (Repeat 2x)
"Well I know..."
"Oh, throw off the covers..."

Prechorus
Chorus
[Short bass riff]

Outro (Repeat 2x):
  F#       D       A        E
G:--------|-------|--------|-------|
D:4--4-4--|-------|--------|-------|
A:-------7|5--5-5-|-------5|7--7-7-|
E:--------|-------|5--5-5--|-------|

Chorus

END

Notes:
A good one from Blue Rodeo.

I'm not exactly sure about the short transition bass riffs after each chorus.  Listen to
CD closely and you can find an appropriate fill.

Special thanks to Sparkster for giving me the right notes to this song.  See
http://www.bluerodeo.com/forums/thread/317522.aspx

Tabbed 8/25/2007 by Scott Herzog at aerosurfer21@yahoo.com.  Email with corrections or comments.

/ = slide up
\ = slide down

            
            
Suggest correction
Creating personal tab
Creating personal tab
You can edit any tab online and save it as your Personal.

You can edit, replace or remove any tab part or add personal notes – all changes will be seen only by you.

Personal tabs can be accessed anytime from any device, even offline.
Learn more »
Give kudos to tab author, rate the tab!
1 2 3 4 5
comments
print report bad tab
2 comments total.
0 reply
FrazerXskead 85 Apr 14, 2008 06:57 PM

Zack Skead is a big bitch

0 reply
FrazerXskead 85 Apr 14, 2008 06:57 PM

oops i mean Zach* skead

guest
You may want to rate the tab now too:
select rating
Wanna post a correction for this tab? Suggest correction