Oops, an error
Loading. Please wait.

Graue Wolken chords

version 2
version 2

Whole song

4,037 views 12 this week
1 commentread comment
1 2 3 4 5
x 10
add to favorites
×
Save as Personal and add changes to this tab that will be seen only by you. Learn more ›
×
You can save this tab as Personal to edit and correct it or add notes. All changes will be seen only by you. Learn more »
launch autoscroll
font size
0
reset
transpose
0
reset
simplify chords
display chords
guitar tuner
edit
Autoscroll
slow
fast
+/-
esc
set tempo
stop
Strumming
There is no strumming pattern for this song yet. and get +5 IQ
---------------------------------------------------------------------------
                Graue Wolken - Blumfeld
---------------------------------------------------------------------------
Tabbed by: maguri
Tuning: Standard

Blumfeld
Graue Wolken (2001)
(Jochen Distelmeyer)
From: "Testament der Angst"

---------------------------------------------------------------------------

           E-A-D-G-B-E
Aadd9      x-0-2-4-2-0
F#7sus2    2-x-2-1-2-0 (= Amaj7/F#)
Gmaj7      3-x-0-0-0-2
G6         3-x-0-0-0-0
Dsus2      x(0)-0-2?3-0

---------------------------------------------------------------------------
Basic chord changes 
Whatever your strumming pattern may be, try to include the following
accents:

  Aadd9                             F#7sus2
  1 + 2 + 3 + 4 +  1 + 2 + 3 + 4 +  1 + 2 + 3 + 4 +  1 + 2 + 3 + 4 +
e|0---------0---0-|----------0-----|0---------0---0-|----------0-----|
B|2---------2---2-|----------2-----|2---------2---2-|----------2-----|
G|4---------4---4-|----------4-----|1---------1---1-|----------1-----|
D|2---------2---2-|2---------2-----|2---------2---2-|----------2-----|
A|0---------------|0---------------|----------------|----------------|
E|----------------|----------------|2---------------|2---------------|

  Gamj7    G6 Gmaj7                 Dsus2
  1 + 2 + 3 + 4 +  1 + 2 + 3 + 4 +  1 + 2 + 3 + 4 +  1 + 2 + 3 + 4 +
e|2---------0---2-|----------2-----|0---------0---0-|----------0-----|
B|0---------0---0-|----------0-----|3---------3---3-|----------3-----|
G|0---------0---0-|----------0-----|2---------2---2-|----------2-----|
D|0---------0---0-|----------0-----|0---------------|0---------------|
A|----------------|----------------|----------------|----------------|
E|3---------------|3---------------|----------------|----------------|

---------------------------------------------------------------------------

Capo 1st fret

INTRO
| Aadd9 | % |
| Aadd9 | % | F#7sus2 | % |
| Gmaj7 | % | Dsus2 | % |


VERSE 
Aadd9                          F#7sus2 
 Wo komm all die grauen Wolken her?
Gmaj7     
 Ich schau nach draußen auf den Tag,
   Dsus2
Es regnet und ich kann nicht mehr

Aadd9                    F#7sus2 
 Wo ist der blaue Himmel hin?
Gmaj7     
 Ich weiß nicht, warum ich lebe,
Dsus2
Nur, dass ich am Leben bin


MIDDLE 8
F                                A
Dann steh ich auf und gehe unter Menschen
F                            A
Und frage mich, was kann ich tun?
F
Ich will sie hassen
F#m
Und kanns nicht lassen,
G
In allem, was sie ausmacht, auch ein Stück von mir zu sehen.


INTRO
| Aadd9 | % | F#7sus2 | % |
| Gmaj7 | % | Dsus2 | % |


VERSE
Aadd9                            F#7sus2 
 Wo kommen all die grauen Wolken her?
    Gmaj7     
Die ganze Welt dreht sich im Kreis
   Dsus2
Ich seh mich um und will nicht mehr

Aadd9                  F#7sus2 
 Wo ist die rote Sonne hin?
Gmaj7     
Arbeit, Fernsehen, Schlafengehen,
   Dsus2
So macht das Leben keinen Sinn


MIDDLE 8
F                                A
Dann steh ich auf und gehe unter Menschen
F                            A
Und frage mich, was kann ich tun?
F
Ich kanns nicht fassen
F#m
Sie könns nicht lassen
G
Nur ihre eignen Leben, immer nur sich selbst zu sehen.


SOLO (Sax)
| Aadd9 | % | F#7sus2 | % |
| Gmaj7 | % | Dsus2 | % |
| Aadd9 | % | F#7sus2 | % |
| Gmaj7 | % | Dsus2 | % |


VERSE
Aadd9                          F#7sus2 
 Wo komm all die grauen Wolken her?
Gmaj7     
 Ich schau nach draußen auf den Tag,
   Dsus2
Es regnet und ich kann nicht mehr

Aadd9                               F#7sus2 
 Ich weiß nicht woher, weiß nicht wohin
Gmaj7     
 Ich weiß nicht, warum ich lebe,
Dsus2
Nur, dass ich am Leben bin.


SOLO (Sax)
| Aadd9 | % | F#7sus2 | % |
| Gmaj7 | % | Dsus2 | % |
| Aadd9 | % | F#7sus2 | % |
| Gmaj7 | % | Dsus2 | % |
| Aadd9 |

            
            
Suggest correction
Creating personal tab
Creating personal tab
You can edit any tab online and save it as your Personal.

You can edit, replace or remove any tab part or add personal notes – all changes will be seen only by you.

Personal tabs can be accessed anytime from any device, even offline.
Learn more »
comments
print report bad tab
1 comment total.
0 reply
maguri [tm] 32,642 Nov 25, 2013 10:02 AM

Hi! I'm the submitter of this tab. I don't know why someone thought this tab was "not so good" and gave it two stars. I checked it out again and think it is fine. If you think so too: please vote. Thank you!

guest
You may want to rate the tab now too:
select rating
Wanna post a correction for this tab? Suggest correction