Oops, an error
Loading. Please wait.

The Universal chords

version 6
version 6

Interactive

by Blur
1,339 views 6 this week
no commentswrite comment
1 2 3 4 5
x 7
add to favorites
×
Save as Personal and add changes to this tab that will be seen only by you. Learn more ›
×
You can save this tab as Personal to edit and correct it or add notes. All changes will be seen only by you. Learn more »
launch autoscroll
font size
0
reset
transpose
0
reset
simplify chords
display chords
guitar tuner
edit
Autoscroll
slow
fast
+/-
esc
set tempo
stop
Author
Difficulty
Strumming
There is no strumming pattern for this song yet. and get +5 IQ
Song: The universal
Artist: Blur
Composers: Albarn, Coxon, James & Rowntree
Album: The great escape
Tabbed by DJ
25th July 2015

C-5  = x3455x   A4    = x02230   D/E    = xx2232
A    = x02220   Asus2 = x02200   D/C#   = x40232
C#m  = x46654   D     = xx0232   E4     = 022200
E    = 022100   D/E   = xx2232   E7     = 020100
Bm   = x24432   D/C#  = x40232   A/C#   = x4222x
Bm/A = x04432   E4    = 022200   Emmaj7 = xx2110

\ = slide down

*********************************************************************

[Intro]
     C-5
e |--------------------|
B |---5----------------|
G |---5----------------|
D |---4----------------|
A |---3----------------|
E |--------------------|

     A                  C#m
e |------0-0---0---0---x----4\---| [x6]
B |------2-2---2---2---x----5\---|
G |------2-2---2---2---x----6\---|
D |------2-2---2---2---x----6\---|
A |---0------------------4-------|
E |------------------------------|


[Verse 1]
     A                 C#m   A   C#m              A       C#m
This is the next cen - t'ry,         where the universal's ...free,
A   C#m       E            Bm     E                 Bm
    You can find it any - where,     yes, the fu - ture's been sold!


[Verse 2]
  A               C#m       A   C#m           A     C#m
Every night we're  ...gone,         and to karaoke songs,
A  C#m         E                  Bm   E              Bm       Bm/A
      How we like to ...sing a - long,    though the words are wrong!


[Chorus]
    A4    A   A4    A    A4     A  Asus2   D    D/E
It real -ly, real - ly, real - ly could happen,
         A4    A    A4    A    A4   A  Asus2    D    D/E
Yes, it real - ly, real - ly, rea - ly could happen,
         C#m
When the days they seem to fall through you,
       D   D/C#     Bm              E
Well, just let them go!
                e |--2-----------|--0--------|
                B |--3-----------|--0--------|
                G |--4-----------|--1--------|
                D |--4-----------|--2--------|
                A |--2----0------|--2--------|
                E |----------4---|--0--------|


[Verse 3]
    A    C#m       A    C#m
||: /  /  /  /  |  /  /  /  /  :||[x2]

    A              C#m    A   C#m           A            C#m 
No one here is a - lone,          satel - lites in every  ...home,
A  C#m             E         Bm       E            Bm
       Yes, the universal's ...here,    here for everyone!


[Verse 4]
  A    C#m       A    C#m
| /  /  /  /  |  /  /  /  /  |

        A            C#m       A  C#m
Every paper that you read...
              E                 Bm     E                    Bm
Says, 'To - morrow's your lucky day!',   well, here's your lucky day!


[Chorus]
    A4    A   A4    A    A4     A  Asus2  D     D/E
It real -ly, real - ly, real - ly could happen,
         A4    A    A4    A    A4    A  Asus2   D    D/E
Yes, it real - ly, real - ly, rea - ly could happen,
         C#m
When the days they seem to fall through you,
       D  D/C#      Bm             E4    E
Well, just let them go!
                  | /  /  /  /  |  /  /  /  /  |


[Chorus]
    A4    A   A4    A    A4     A  Asus2   D    D/E
It real -ly, real - ly, real - ly could happen,
         A4    A    A4    A    A4   A  Asus2    D    D/E
Yes, it real - ly, real - ly, rea - ly could happen,
         C#m
When the days they seem to fall through you,
       D   D/C#     Bm              E
Well, just let them go-----------------!
                e |--2-----------|--0--------|
                B |--3-----------|--0--------|
                G |--4-----------|--1--------|
                D |--4-----------|--2--------|
                A |--2----0------|--2--------|
                E |----------4\--|--0--------|


[Instrumental chorus]                         (Oo---!)
    A4 A  A4 A     A4 A  Asus2   D             D/E
||: /  /  /  /  |  /  /  /  /  | /  /  /  /  |  /  /  /  / :|| [x2]

  C#m                             D   D/C#    Bm       E4    E
|  /  /  /  /  |  /  /  /  /  | (Just let them go!) |  /  /  /  /  |



 [Instrumental chorus & coda]                 (Oo---!)
    A4 A  A4 A     A4 A  Asus2   D             D/E
||: /  /  /  /  |  /  /  /  /  | /  /  /  /  |  /  /  /  / :|| [x2]

  C#m
|  /  /  /  /  |  /  /  /  /  |

  D   D/C#     Bm              E    E7     A/C#   E Emmaj7    A
(Just let them go-----------------!)
           e |--2--2--2--2--|--0-----0---|--x-----0---0---|---0---||
           B |--3--3--3--3--|--0-----0---|--2-----0---1---|---2---||
           G |--4--4--4--4--|--1-----1---|--2-----1---1---|---2---||
           D |--4--4--4--4--|--2-----0---|--2-----2---2---|---2---||
           A |--2--2--2--2--|--2-----2---|--4-------------|---0---||
           E |--------------|--0-----0---|----------------|-------||

            
            
Suggest correction
Creating personal tab
Creating personal tab
You can edit any tab online and save it as your Personal.

You can edit, replace or remove any tab part or add personal notes – all changes will be seen only by you.

Personal tabs can be accessed anytime from any device, even offline.
Learn more »
comments
print report bad tab
guest
You may want to rate the tab now too:
select rating
Wanna post a correction for this tab? Suggest correction