Oops, an error
Loading. Please wait.

Duvet chords

version 2
version 2

Whole song

Interactive

by BoA
1,929 views 6 this week
no commentswrite comment
1 2 3 4 5
1 last vote to show rating
add to favorites
×
Save as Personal and add changes to this tab that will be seen only by you. Learn more ›
×
You can save this tab as Personal to edit and correct it or add notes. All changes will be seen only by you. Learn more »
launch autoscroll
font size
0
reset
transpose
0
reset
display chords
guitar tuner
edit
Autoscroll
slow
fast
+/-
esc
set tempo
stop
Author
Difficulty
Strumming
There is no strumming pattern for this song yet. and get +5 IQ
-------------------------------------------------------------------------------
                             Duvet - Boa
-------------------------------------------------------------------------------
Tabbed by: Mathias Rain (Rain_grunge)
E-mail: Shadow_wolfm@hotmail.com

This is the whole song with chords, lyrics and the solo, hope you enjoy, please rate and leave your comments.

Tuning:Standard

Verse:
            G          Bm
And you don't seem to understand
                      Em         Bm
A shame you seemed an honest man
                      G            Bm
And all the fears you hold so dear
                     Em          Bm
Will turn to whisper in your ear
                                 G
And you know what they say might hurt you
                              Bm
And you know that it means so much
                   Em           Bm
And you don't even feel a thing

Chorus:
Bm   Em       Bm   G
I am falling, I am fading
Bm     Em          Bm  G
I have lost it all

Verse:
                       G          Bm
And you don't seem the lying kind
                   Em             Bm
A shame then I can read your mind
                        G            Bm
And all the things that I read there
                      Em            Bm
Candle lit smile that we both share
                             G
and you know I don't mean to hurt you
                              Bm
But you know that it means so much
                   Em           Bm
And you don't even feel a thing

Chorus:        
Bm   Em       Bm   G       Bm   Em
I am falling, I am fading, I am drowning
Bm         G
Help me to breathe

G    Em       Bm     G
I am hurting, I have lost it all
Bm   Em
I am losing
Bm         G
Help me to breathe

Solo:

e|---5--5--5--5--5---10--9--7--9--10/12-10--|
B|----3--3--3--3--3----8--8--5--8-7-/-9--7--|
G|-----4--4--4--4--4----9--9--6--9----------|
D|------------------------------------------|
A|------------------------------------------|
E|------------------------------------------|

e|---14----12----10--9-10-9--10--9--7--7--7----|
B|-----12----10----8--8--8-8---8--8--5--5--5---|
G|-------14----12---9-------9---9--9--6--6--6--|
D|---------------------------------------------|
A|---------------------------------------------|
E|---------------------------------------------|

e|---5--5--5--5--5---10--9--7--9--10/12-10--|
B|----3--3--3--3--3----8--8--5--8-7-/-9--7--|
G|-----4--4--4--4--4----9--9--6--9----------|
D|------------------------------------------|
A|------------------------------------------|
E|------------------------------------------|

e|---14----12----14----12----14--12--14--19--19--19-19-19--|
B|-----12----10----12----10----12--10--12------------------|
G|-------14----12----14----12------------------------------|
D|---------------------------------------------------------|
A|---------------------------------------------------------|
E|---------------------------------------------------------|

e|--2h3p2-3h5p3-5h7p5-9h10p9-12h14-14h15p14~---------------|
B|---------------------------------------------------------|
G|---------------------------------------------------------|
D|---------------------------------------------------------|
A|---------------------------------------------------------|
E|---------------------------------------------------------|

e|--14h15p14-10h12p10-5h7p5-2h3p2--------------------------|
B|--------------------------------3h5-3h5p3~---------------|
G|---------------------------------------------------------|
D|---------------------------------------------------------|
A|---------------------------------------------------------|
E|---------------------------------------------------------|

e|--2h3p2-3h5p3-5h7p5-9h10p9-12h14-14h15p14~---------------|
B|---------------------------------------------------------|
G|---------------------------------------------------------|
D|---------------------------------------------------------|
A|---------------------------------------------------------|
E|---------------------------------------------------------|

e|--17h19p17-14h15p14-10h12p10-5h7p5-2h3-2h3h2~------------|
B|---------------------------------------------------------|
G|---------------------------------------------------------|
D|---------------------------------------------------------|
A|---------------------------------------------------------|
E|---------------------------------------------------------|


Outro:
Bm   Em       Bm   G       Bm   Em
I am falling, I am fading, I am drowning
Bm         G
Help me to breathe

G    Em       Bm     G
I am hurting, I have lost it all
Bm   Em
I am losing
Bm         G
Help me to breathe

Em
hey...

Bm   Em       Bm   G       Bm   Em
I am falling, I am fading, I am drowning
Bm         G
Help me to breathe

G    Em       Bm     G
I am hurting, I have lost it all
Bm   Em
I am losing
Bm         G
Help me to breathe

************************************

| /   slide up
| \   slide down
| h   hammer-on
| p   pull-off
| ~   vibrato
| +   harmonic
| x   Mute note
| b   Bend
| pb  Pre-bend
| br  Bend release
| pbr Pre-bend release
| brb Bend release bend

************************************

            
            
Suggest correction
Creating personal tab
Creating personal tab
You can edit any tab online and save it as your Personal.

You can edit, replace or remove any tab part or add personal notes – all changes will be seen only by you.

Personal tabs can be accessed anytime from any device, even offline.
Learn more »
Give kudos to tab author, rate the tab!
1 2 3 4 5
comments
print report bad tab
guest
You may want to rate the tab now too:
select rating
Wanna post a correction for this tab? Suggest correction