Oops, an error
Loading. Please wait.

Hey Saturday Sun intro tab

version 1
version 1

Intro

Whole song

2,553 views 9 this week
3 commentsread comments
1 2 3 4 5
x 4
add to favorites
×
Save as Personal and add changes to this tab that will be seen only by you. Learn more ›
×
You can save this tab as Personal to edit and correct it or add notes. All changes will be seen only by you. Learn more »
launch autoscroll
font size
0
reset
how to read this tab
guitar tuner
edit
Autoscroll
slow
fast
+/-
esc
set tempo
stop
Difficulty
e|--------------------------------------------------------------|
B|--------------------------------------------------------------|
G|----------10----10---------6-----6------------8----8----------|
D|-----11---------------7-----------------9---------------------|
A|---9----9-----9-----5----5----5------7-----7----7-------------|
E|--------------------------------------------------------------|
                                                                                         
                          repeat as needed

            
            
Suggest correction
Creating personal tab
Creating personal tab
You can edit any tab online and save it as your Personal.

You can edit, replace or remove any tab part or add personal notes – all changes will be seen only by you.

Personal tabs can be accessed anytime from any device, even offline.
Learn more »
comments
print report bad tab
3 comments total.
0 reply
barb3rman 121 Jan 16, 2008 01:29 PM

I think the E sharps should be E flats.

e|--------------------------------------------------------------|
B|--------------------------------------------------------------|
G|----------10----10---------6-----6------------6----6----------|
D|-----11---------------7-----------------9---------------------|
A|---9----9-----9-----5----5----5------7-----7----7-------------|
E|--------------------------------------------------------------|

0 reply
barb3rman 121 Jan 16, 2008 01:34 PM

er lol e sharps don't exist...d sharp to d flat

0 reply
barb3rman 121 Mar 10, 2008 01:13 PM

Ok started playing this again and I think the tab is correct =P sorry

guest
Wanna post a correction for this tab? Suggest correction