Oops, an error
Loading. Please wait.

Gonna Change My Way Of Thinking bass

1,138 views 1 this week
no commentswrite comment
1 2 3 4 5
1 last vote to show rating
add to favorites
×
Save as Personal and add changes to this tab that will be seen only by you. Learn more ›
×
You can save this tab as Personal to edit and correct it or add notes. All changes will be seen only by you. Learn more »
launch autoscroll
font size
0
reset
guitar tuner
edit
Autoscroll
slow
fast
+/-
esc
set tempo
stop
Author
Difficulty
Song: Gonna Change My Way of Thinking
Artist: Bob Dylan
Album: Slow Train Coming
Tabbed by: Carlos Bergen (bergencarlos@gmail.com)

Just repeat this the whole song.

G|----------------------|----------------------|
D|----------------------|----------------------|
A|-------------3--5-3-5-|-------------3--5-3---|
E|--5-5-3-5--5----------|--5-5-3-5--5--------5-|



G|----------------------|----------------------|
D|-------------3--5-3---|----------------------|
A|--5-5-3-5--5--------5-|-------------3--5-3---|
E|----------------------|--5-5-3-5--5--------5-|



G|---------------------------|----------------------------|
D|-------------3-------------|----------------------------|
A|--7-7-5-7--5---5-5-3-5s7-3-|----------------------------|
E|---------------------------|--5-5-3-5--3-5-3-5-5--3-5-5-|

            
            
Suggest correction
Creating personal tab
Creating personal tab
You can edit any tab online and save it as your Personal.

You can edit, replace or remove any tab part or add personal notes – all changes will be seen only by you.

Personal tabs can be accessed anytime from any device, even offline.
Learn more »
Give kudos to tab author, rate the tab!
1 2 3 4 5
comments
print report bad tab
guest
You may want to rate the tab now too:
select rating
Wanna post a correction for this tab? Suggest correction