Oops, an error
Loading. Please wait.

Make You Feel My Love chords

version 9
version 9
7,803 views 30 this week
1 commentread comment
1 2 3 4 5
x 5
add to favorites
×
Save as Personal and add changes to this tab that will be seen only by you. Learn more ›
×
You can save this tab as Personal to edit and correct it or add notes. All changes will be seen only by you. Learn more »
launch autoscroll
font size
0
reset
transpose
0
reset
simplify chords
display chords
guitar tuner
edit
Autoscroll
slow
fast
+/-
esc
set tempo
stop
Author
Strumming
There is no strumming pattern for this song yet. and get +5 IQ
Make You Feel My Love
Bob Dylan (metonymo tab)

In "Time Out of Mind" this is a piano tune with a jazzy chord arrangement
and a sinking bass. So to Make You Feel That with a guitar I've transposed
the tune to G, and use these "jazz chords" that suits the bass, and give easy
transitions between chords.

Down under I have added a similar version in C with the same type of 
chord voicing that emphasize the sinking bass. 


Version in G

G         3x543x/35543x
D/f#:     x9777x
Dm/f:     x8776x
C/e:      x7555x
Cm/d#:    x6554x
G/d:      x5543x
C#m7b5:   x4545x
D9sus4:   x5555x 
 (D7sus4: x5558x)
C         x3555x
Gaug:     x6544x
(or G/d#  x6543x)
Am        5x755x/57755x
D         x5777x


G                        D/f# 
When the rain is blowing in your face
Dm/f                   C/e
and the whole world is on your case
Cm/d#           G/d
I could offer a warm embrace
C#m7b5      D9sus   G
to make you feel my love

When evening shatters and the stars appear
and there is no one there to dry your tears
I could hold you for a million years
to make you feel my love

     C                            G
     I know you haven't made your mind up yet
     Gaug        C            G
     but I would never do you wrong
     C                             G
     I've known it from the moment that we met
     Am                            D
     no doubt in my mind where you belong

I'd go hungry, I'd go black and blue
I'd go crawling down the avenue
Oh there's nothing that I wouldn't do
to make you feel my love

    The storms are raging on the rolling sea
    and on the highway of regret
    the winds of change are blowing wild and free
    you ain't seen nothing like me yet

I could make you happy, make your dreams come true
nothing that I wouldn't do
go to the ends of the earth for you
to make you feel my love


********
Version in C
To play in the same key as Dylan, in C#, place the
chords one fret up the neck (equals capo 1th fret)  

Verse
C        8x1098x
G/h      7x978x
Gm/a#    6x878x
F/a      5x756x
Fm/g#    4x656x
C/g      3x555x
F#m7b5   5x455x or 2x221x
G9sus    3x321x or 3x353x 
C        x3555x

Bridge
F        1x321xx         /8101010x 
C        x3555x          /8x1098x
Caug     4x655x /x3211x  /x111099x  
(or C/g#)4x333x          /x111098x
Dm       x5776x          /10x121010x
G        3x543x          /x10121212x/

 
C                        G/h 
When the rain is blowing in your face
Gm/a#                  F/a
and the whole world is on your case
Fm/g#           C/g
I could offer a warm embrace
F#m7b5      G9sus   C
to make you feel my love

When evening shatters and the stars appear
and there is no one there to dry your tears
I could hold you for a million years
to make you feel my love

    F                            C
    I know you haven't made your mind up yet
    Caug        F            C
    but I would never do you wrong
    F                             C
    I've known it from the moment that we met
    Dm                            G
    no doubt in my mind where you belong

I'd go hungry, I'd go black and blue
I'd go crawling down the avenue
Oh there's nothing that I wouldn't do
to make you feel my love

   The storms are raging on the rolling sea
   and on the highway of regret
   the winds of change are blowing wild and free
   you ain't seen nothing like me yet

I could make you happy, make your dreams come true
nothing that I wouldn't do
go to the ends of the earth for you
to make you feel my love




********

The sinking bass notes could be emphasized by "doubling" the bass in
transitions between chords (bass goes: g  g-f#  f#  f#-f  f  f-e etc.), 
like in this simple picking pattern from the G-version:



  G                               D/f#
  g                           g   f#                          f#
  :   .   .   .   :   .   .   .   :   .   .   .   :   .   .   .    
-------------------------------------------------------------------|
--------------3----------(3)------------------7----------(7)-------|
----------4---------------4---------------7---------------7--------|
------5---------------5-------5-------7---------------7------------|
----------------------------------9---------------9-----------9----|
--3---------------3------------------------------------------------|
         When the rain is blowing in    your   face


  Dm/F                            C/e
  f                           f   e                           e
  :   .   .   .   :   .   .   .   :   .   .   .   :   .   .   .    
-------------------------------------------------------------------|
--------------6----------(6)------------------5----------(5)-------|
----------7---------------7---------------5---------------5--------|
------7---------------7---------------5---------------5------------|
--8---------------8-----------8---7---------------7-----------7----|
-------------------------------------------------------------------|
         and the whole world is   on  your  case


  Cm/d#                           G/d
  d#                          d#  d                           d
  :   .   .   .   :   .   .   .   :   .   .   .   :   .   .   .    
-------------------------------------------------------------------|
--------------4----------(4)------------------3----------(3)-------|
----------5---------------4---------------4---------------4--------|
------5---------------5---------------5---------------5------------|
--6---------------6-----------6---5---------------5-----------5----|
-------------------------------------------------------------------|
         I could offer  a         warm embrace


  C#m7b5          D9sus4          G
  c#              
  :   .   .   .   :   .   .   .   :   .   .   .   :   .   .   .    
-------------------------------------------------------------------|
--------------5---5---5-----------3-----------------------3--------|
----------4-------5---5-----------4---------------4-------4--------|
------5-----------5---5-----------5-----------5-----------5--------|
--4---------------5------------------------------------------------|
----------------------------------3--------------------------------|
     to make you  feel    my      love





            
            
Suggest correction
Creating personal tab
Creating personal tab
You can edit any tab online and save it as your Personal.

You can edit, replace or remove any tab part or add personal notes – all changes will be seen only by you.

Personal tabs can be accessed anytime from any device, even offline.
Learn more »
comments
print report bad tab
1 comment total.
0 reply
roksmaster 10 Oct 18, 2013 10:52 PM

thank you so much

guest
You may want to rate the tab now too:
select rating
Wanna post a correction for this tab? Suggest correction