Oops, an error
Loading. Please wait.

Mama You Been On My Mind tab

23,015 views 6 this week
2 commentsread comments
1 2 3 4 5
x 4
add to favorites
×
Save as Personal and add changes to this tab that will be seen only by you. Learn more ›
×
You can save this tab as Personal to edit and correct it or add notes. All changes will be seen only by you. Learn more »
launch autoscroll
font size
0
reset
how to read this tab
guitar tuner
edit
Autoscroll
slow
fast
+/-
esc
set tempo
stop
Bob Dylan - Mama you've been on my mind (from Bart Korteweg youtube video chords
http://www.youtube.com/watch?v=ONJTywaLJXs)

Capo on 4th

E|-----------------|-----------------|-----------------|-----------2-----|
B|-----------------|-----------------|-----------1-----|-----1--------1--|
G|-----------2-----|-----------1-----|-----2--------2--|--------2--------|
D|-----2--------2--|-----2--------2--|--------2--------|--0--------------|
A|--------3--------|--------2--------|--0--------------|-----------------|
E|--3--------------|--0--------------|-----------------|-----------------|
(1) Perhaps it's the color of the sun cut flat an' cov'rin' 
    the crossroads I'm standing at,

(3) Even though my mind is hazy an' my thoughts they might be narrow,
    Where you been don't bother me nor bring me down in sorrow.

(5) I am not askin' you to say words like "yes" or "no,"
    Please understand me, I got no place for you t' go.

(7) When you wake up in the mornin', baby, look inside your mirror.
    You know I won't be next to you, you know I won't be near.

E|--------------------|--------------------|-----------3----|--------------------------|
B|--------------------|--------------------|----------------|-----------1-----------1--|
G|-----0-----0--------|-----------------2--|-----0----------|-----0-----------0--------|
D|-----------------2--|-----2-----3--------|--------0-------|--------2-----------2-----|
A|--3-----2-----0-----|--------------3-----|----------------|--3-----------------------|
E|--------------------|--3-----1-----------|--2-------------|--------------3-----------|
(2) Or maybe it's the weather or something like that,
    But mama, you been on my mind.

(4) It don't even matter to me where you're wakin' up tomorrow,
    But mama, you're just on my mind.

(6) I'm just breathin' to myself, pretendin' not that I don't know,
    Mama, you been on my mind.

(8) I'd just be curious to know if you can see yourself as clear
    As someone who has had you on his mind.


            
            
Suggest correction
Creating personal tab
Creating personal tab
You can edit any tab online and save it as your Personal.

You can edit, replace or remove any tab part or add personal notes – all changes will be seen only by you.

Personal tabs can be accessed anytime from any device, even offline.
Learn more »
comments
print report bad tab
2 comments total.
0 reply
Colm1992 10 Aug 31, 2009 11:46 AM

look at the video!!.. this is pretty bad tab.

0 reply
sgruender14 69 Mar 14, 2016 05:21 PM

enter at least fifteen words, thats a large task for someone trying to help you guys out and fucking rate something

guest
You may want to rate the tab now too:
select rating
Wanna post a correction for this tab? Suggest correction