Oops, an error
Loading. Please wait.
We have an official One Too Many Mornings tab made by UG professional guitarists. Check out the tab »
×
10,880 views 27 this week
1 commentread comment
1 2 3 4 5
x 7
add to favorites
×
Save as Personal and add changes to this tab that will be seen only by you. Learn more ›
×
You can save this tab as Personal to edit and correct it or add notes. All changes will be seen only by you. Learn more »
launch autoscroll
font size
0
reset
how to read this tab
guitar tuner
edit
Autoscroll
slow
fast
+/-
esc
set tempo
stop
Beautiful song.
in a slightly awkward tuning and there are other ways to play it, however i think 
the open strings really add the the songs beauty.

tuning:
E-A-C#-E-A-C#

capo on third, using a C harmonica

Intro:
C#|-------------|
A |---0-------0-|
E |-------0-----|
C#|---0-----0---|
A |-------------|
E |-5---5-------|

Verse:
C#|-------------|-------------|-------------|  
A |---0-------0-|---0-------0-|---0-------0-|
E |-------0-----|-------0-----|-------0-----|
C#|---0-----0---|---0-----0---|---1-----1---|
A |-------------|-------------|-------------|
E |-5---5-------|-4---4-------|-2---2-------|


C#|-------------|-------------|---------|-------------|-------------|  
A |---0-------0-|---0-------0-|---0---0-|---0-------0-|---0-------0-|
E |-------0-----|-------0-----|---------|-------0-----|-------0-----|
C#|---3-----3---|---3-----3---|---3---3-|---3-----3---|---1-----1---|
A |-4---4-------|-----4-------|-4---5---|-4---4-------|-2---2-------|
E |-------------|-0-----------|---------|-------------|-------------|


C#|-------------|-------------|-------------|-------------|-------------|   
A |---0-------0-|---0-------0-|---0-------0-|---0-------0-|---0-------0-|
E |-------0-----|-------0-----|-------0-----|-------0-----|-------0-----|
C#|---1-----1---|---3-----3---|---1-----1---|---0-----0---|---0-----0---|
A |-2---2-------|-4---4-------|-2---2-------|-------------|-------------|
E |-------------|-------------|-------------|-5---5-------|-5---5-------|

that repeats throughout. There are some open e-string notes added in but thats the basic pattern

enjoy :)



            
            
Suggest correction
Creating personal tab
Creating personal tab
You can edit any tab online and save it as your Personal.

You can edit, replace or remove any tab part or add personal notes – all changes will be seen only by you.

Personal tabs can be accessed anytime from any device, even offline.
Learn more »
comments
print report bad tab
1 comment total.
0 reply
franksta 136 May 04, 2010 09:40 AM

just realized i put 8th fret on the intro
did that out of instictin because open, it is fret 8
should be 5

guest
You may want to rate the tab now too:
select rating
Wanna post a correction for this tab? Suggest correction