Oops, an error
Loading. Please wait.

You Belong To Me chords

version 3
version 3

Whole song

433 views 18 this week
no commentswrite comment
1 2 3 4 5
2 more votes to show rating
add to favorites
×
Save as Personal and add changes to this tab that will be seen only by you. Learn more ›
×
You can save this tab as Personal to edit and correct it or add notes. All changes will be seen only by you. Learn more »
launch autoscroll
font size
0
reset
transpose
0
reset
simplify chords
display chords
guitar tuner
edit
Autoscroll
slow
fast
+/-
esc
set tempo
stop
About this tab version
Complete chords and tablature of the Intro. Was this info helpful? Yes No
Strumming
There is no strumming pattern for this song yet. and get +5 IQ
Tabs
————
[Intro]
   C                 Em                      Fmaj7             C
e|-----------------|-----------------------|-----------------|-------0----------|
B|-----------------|---------0-------------|-----1-1-1-1-----|-------1----------|
G|---------------2-|---------0-----0-0-----|-----2-0-2-2p0---|---0---0----0---0-|
D|-----2-0-2-0---0-|-0h2-2---2-----2-2-2p0-|-3---3-3-3-3---3-|-2---2--------2---|
A|-----3-3-3-3-3---|-0h2-------------------|-3---------------|-3----------------|
E|-----------------|-------0---------------|-----------------|------------------|

   F       Fm      C   Cadd2/B Am             Dsus2      G           C
e|---------------|--------------------------|-----0----------1-----|-------0----|
B|---------1-----|------------------(1)-----|-----3----3-----0---0-|---1---1----|
G|-----2---1-----|---0---0----0h2--(2)----2-|---2-----2---------0--|-0---0-0----|
D|---3-3-3-3-----|---2---0----0h2-(2)---2---|-0------------0-------|-2----------|
A|-3-------------|-3---2------0-------------|----------------------|-3----------|
E|---------------|--------------------------|------------3---------|------------|

Song
————

[Intro]
C         Em
Fmaj7     C
Fmaj7 F4  C ( Cadd2/B ) Am
Dsus2 G   C

[Verse 1]
C                    Em
  See the pyramids along the Nile
Fmaj7                        C
  Watch the sun rise from a tropic isle
Fmaj7    F4               C   Cadd2/B  Am
  Just remember, darling, all the   while
Dsus2            G
  You belong to me

[Verse 2]
C                         Em
  See the market place in old Algiers
Fmaj7                     C
  Send me photographs and souvenirs
Fmaj7    F4            C   ( Cadd2/B ) Am
  Just remember when a dream app______ears
Dsus2    G       C
  You belong to me

[Chorus]
C                       F
  I'll be so alone without you
D7                        G          Gsus4 G6
Maybe you'll be lonesome too (and blue)

[Verse 3]
C                     Em
  Fly the ocean in a silver plane
Fmaj7                      C
  See the jungle when it's wet with rain
Fmaj7    F4                 C  ( Cadd2/B ) Am
  Just remember till you're home ag_______ain
Dsus2    G       C
  You belong to me

[Break (as intro)]
C         Em
Fmaj7     C
Fmaj7 F4  C ( Cadd2/B ) Am
Dsus2 G   C

[Chorus]
C                       F
  I'll be so alone without you
D7                        G          Gsus4 G6
Maybe you'll be lonesome too (and blue)

[Verse 4]
C                     Em
  Fly the ocean in a silver plane
Fmaj7                      C
  See the jungle when it's wet with rain
Fmaj7    F4                 C  ( Cadd2/B ) Am
  Just remember till you're home ag_______ain
Dsus2    G       C
  You belong to me

[Outro (intro + end)]
C         Em
Fmaj7     C
Fmaj7 F4  C ( Cadd2/B ) Am
Dsus2 G   C

Dsus2 G   C

            
            
Suggest correction
Creating personal tab
Creating personal tab
You can edit any tab online and save it as your Personal.

You can edit, replace or remove any tab part or add personal notes – all changes will be seen only by you.

Personal tabs can be accessed anytime from any device, even offline.
Learn more »
Give kudos to tab author, rate the tab!
1 2 3 4 5
comments
print report bad tab
guest
You may want to rate the tab now too:
select rating
Wanna post a correction for this tab? Suggest correction