Oops, an error
Loading. Please wait.

Exodus bass

version 2
version 2

Whole song

Interactive

3,463 views 6 this week
no commentswrite comment
1 2 3 4 5
1 last vote to show rating
add to favorites
×
Save as Personal and add changes to this tab that will be seen only by you. Learn more ›
×
You can save this tab as Personal to edit and correct it or add notes. All changes will be seen only by you. Learn more »
launch autoscroll
font size
0
reset
guitar tuner
edit
Autoscroll
slow
fast
+/-
esc
set tempo
stop
Author
Difficulty
Tuning : EADG
Tempo : 133 bpm

Intro
00:07 00:22
G|------------|-------------|------------|------------|-
D|------------|-------------|------------|------------|-
A|------------|-------------|------------|------------|-
E|--3--5------|-------------|--3--5------|------------|-
Exodus, Movement of Jah people!
Oh-oh-oh, yea-eah!

Verse 1 00:36
G|------------|-------------|-
D|------------|-------------|-
A|------------|-3-----------|- x2
E|-5--3/5-3/5-|----5--3-4-5-|-
Men and people will fight ya down (Tell me why!)
When ya see Jah light. (Ha-ha-ha-ha-ha-ha-ha!)

G|------------|-------------|-
D|------------|------5-6-7--|-
A|------------|-3--7--------|- x6
E|-5--3/5-3/5-|-------------|-
Let me tell you if you're not wrong; (Then, why?)
Everything is all right.
So we gonna walk - all right! - through de roads of creation:
We the generation (Tell me why!)
(Trod through great tribulation) trod through great tribulation.

01:11
G|------------|-------------|------------|--------0-2-|-
D|------------|-------------|------------|-------0----|-
A|------------|-3-----------|--0-0--2-2--|--3-3-------|-
E|-5--3/5-3/5-|----5--3-4-5-|------------|------------|-
Exodus, all right!
Movement of Jah people!

G|------------|-------------|-
D|------------|-------------|-
A|------------|-3-----------|- x2
E|-5--3/5-3/5-|----5--3-4-5-|-
Oh, yeah! O-oo, yeah! All right!

G|------------|-------------|-
D|------------|-------------|-
A|------------|-3-----------|- x4
E|-5--3/5-3/5-|----5--3-4-5-|-
Exodus: Movement of Jah people! Oh, yeah!
Yeah-yeah-yeah, well!

Verse 2 01:36
G|------------|-------------|-
D|------------|-------------|-
A|------------|-3-----------|- x2
E|-5--3/5-3/5-|----5--3-4-5-|-
Uh! Open your eyes and look within:

G|------------|-------------|-
D|------------|------5-6-7--|-
A|------------|-3--7--------|- x5
E|-5--3/5-3/5-|-------------|-
Are you satisfied (with the life you're living)? Uh!
We know where we're going, uh!
We know where we're from.
We're leaving Babylon,
We're going to our Father land.

G|------------|-------------|------------|--------0-2-|-
D|------------|-------5-6-7-|------------|-------0----|-
A|------------|-3--7--------|--0-0--2-2--|--3-3-------|-
E|-5--3/5-3/5-|-------------|------------|------------|-
Exodus. . . movement of Jah people!
Oh, yeah!

Chorus 02:15
G|------------|-------------|-
D|------------|-------------|-
A|------------|-3-----------|- x5
E|-5--3/5-3/5-|----5--3-4-5-|-
(Movement of Jah people!) Send us another brother Moses!
(Movement of Jah people!) From across the Red Sea!
(Movement of Jah people!) Send us another brother Moses!
(Movement of Jah people!) From across the Red Sea!

 Movement of Jah people


Instrumental break 02:34
G|------------|-------------|-
D|------------|-------------|-
A|------------|-3-----------|- x3
E|-5--3/5-3/5-|----5--3-4-5-|-

G|------------|-------------|-
D|------------|------5-6-7--|-
A|------------|-3--7--------|-
E|-5--3/5-3/5-|-------------|-

Reprise 02:48
G|------------|-------------|------------|--------0-2-|-
D|------------|-------5-6-7-|------------|-------0----|-
A|------------|-3--7--------|--0-0--2-2--|--3-3-------|-
E|-5--3/5-3/5-|-------------|------------|------------|-
Exodus, all right! Oo-oo-ooh! Oo-ooh!

G|------------|-------------|-
D|------------|-------------|-
A|------------|-3-----------|- x8
E|-5--3/5-3/5-|----5--3-4-5-|-
Movement of Jah people! Oh, yeah!
Exodus!
Exodus! All right!
Exodus! Now, now, now, now!
Exodus!
Exodus! Oh, yea-ea-ea-ea-ea-ea-eah!
Exodus!

G|------------|-------------|-
D|------------|------5-6-7--|-
A|------------|-3--7--------|- x2
E|-5--3/5-3/5-|-------------|-
Exodus! All right!
Exodus! Uh-uh-uh-uh!
Riff 03:31

G|------------|-------------|-
D|------------|-------------|-
A|------------|-3-----------|- x6
E|-5--3/5-3/5-|----5--3-4-5-|-
Move! Move! Move! Move! Move! Move!

Verse 3 03:53
G|------------|-------------|------------|--------0-2-|-
D|------------|-------------|------------|-------0----|-
A|------------|-3-----------|--0-0--2-2--|--3-3-------|-
E|-5--3/5-3/5-|----5--3-4-5-|------------|------------|-
Open your eyes and look within:

G|------------|-------------|-
D|------------|-------------|-
A|------------|-3-----------|- x6
E|-5--3/5-3/5-|----5--3-4-5-|-
Are you satisfied with the life you're living?
We know where we're going;
We know where we're from.
We're leaving Babylon, y'all!
We're going to our Father's land.
Pause (trumpets) 04:20

G|------------|-------------|-
D|------------|------5-6-7--|-
A|------------|-3--7--------|- x4
E|-5--3/5-3/5-|-------------|-
Exodus, all yeah! Movement of Jah people!

G|------------|-------------|------------|--------0-2-|-
D|------------|-------5-6-7-|------------|-------0----|-
A|------------|-3--7--------|--0-0--2-2--|--3-3-------|-
E|-5--3/5-3/5-|-------------|------------|------------|-
Exodus: movement of Jah people!

G|------------|-------------|-
D|------------|------5-6-7--|-
A|------------|-3--7--------|- x4
E|-5--3/5-3/5-|-------------|-
Movement of Jah people!
Movement of Jah people!
Movement of Jah people!
Movement of Jah people!

05:01
G|------------|-------------|-
D|------------|-------------|-
A|------------|-3-----------|- x4
E|-5--3/5-3/5-|----5--3-4-5-|-
Move! Move! Move! Move!

G|------------|-------------|-
D|------------|------5-6-7--|-
A|------------|-3--7--------|- x3
E|-5--3/5-3/5-|-------------|-
Move! Move! Move

05:26
G|------------|-------------|-
D|------------|------5-6-7--|-
A|------------|-3--7--------|- x3
E|-5--3/5-3/5-|-------------|-
Jah come to break downpression,
Rule equality,
Wipe away transgression,

G|------------|-------------|------------|--------0-2-|-
D|------------|-------5-6-7-|------------|-------0----|-
A|------------|-3--7--------|--0-0--2-2--|--3-3-------|-
E|-5--3/5-3/5-|-------------|------------|------------|-
Set the captives free

Pause 05:40
G|------------|-------------|------------|------------|-----------|-
D|------------|-------------|------------|------------|-----------|-
A|------------|-------------|------------|------------|-----------|-
E|--3/5-------|--3/5--------|--3/5-------|--3/5--3/5--|--3/5--3---|-
Exodus, all right, all right!
Movement of Jah people! Oh, yeah!

Reprise 05:55
G|------------|-------------|-
D|------------|-------------|-
A|------------|-3-----------|- x4
E|-5--3/5-3/5-|----5--3-4-5-|-
Exodus: movement of Jah people! Oh, now, now, now, now!

G|------------|-------------|-
D|------------|------5-6-7--|-
A|------------|-3--7--------|- x6
E|-5--3/5-3/5-|-------------|-
Movement of Jah people!
Movement of Jah people!
Movement of Jah people!
Movement of Jah people!
Movement of Jah people!
Movement of Jah people!

G|------------|-------------|------------|--------0-2-|-
D|------------|-------------|------------|-------0----|-
A|------------|-3-----------|--0-0--2-2--|--3-3-------|-
E|-5--3/5-3/5-|----5--3-4-5-|------------|------------|-
Move! Move! Move! Move! Move! Move! Uh-uh-uh-uh!

G|------------|-------------|-
D|------------|-------------|-
A|------------|-3-----------|- xx till fade out
E|-5--3/5-3/5-|----5--3-4-5-|-
Movement of Jah people)!
Movement of Jah people)!
Movement of Jah people)!
Movement of Jah people)! Movement of Jah people!
Movement of Jah people)!
Movement of Jah people)!
Movement of Jah people!
Movement of Jah people!
Movement of Jah people!

End 07:33

            
            
Suggest correction
Creating personal tab
Creating personal tab
You can edit any tab online and save it as your Personal.

You can edit, replace or remove any tab part or add personal notes – all changes will be seen only by you.

Personal tabs can be accessed anytime from any device, even offline.
Learn more »
Give kudos to tab author, rate the tab!
1 2 3 4 5
comments
print report bad tab
guest
You may want to rate the tab now too:
select rating
Wanna post a correction for this tab? Suggest correction