Oops, an error
Loading. Please wait.
We have an official No Woman No Cry tab made by UG professional guitarists. Check out the tab »
×
112,236 views 45 this week
5 commentsread comments
1 2 3 4 5
x 10
add to favorites
×
Save as Personal and add changes to this tab that will be seen only by you. Learn more ›
×
You can save this tab as Personal to edit and correct it or add notes. All changes will be seen only by you. Learn more »
launch autoscroll
font size
0
reset
how to read this tab
guitar tuner
backing track
0:00
0:00
edit
Autoscroll
slow
fast
+/-
esc
set tempo
stop
Author
Difficulty
Unregistered
intermediate
[Intro] (x2)
e|------------------0-------------0----------------0---------1--------|
B|---------------------1-------------0------------------1-------1-----|
G|----------------0------------0---------------2--------2----------2--|
D|------------------------------------------------------3-------------|
A|---0--2----3------------2--------------0----------------------------|
E|-3------3-----------------------------------------------------------|

e|-----------0------------0---1---0---------------------------------------|
B|--------------1--------------------3-1------------0---------------------|
G|-------0----------------0---2---0----------0--1------0------------------|
D|------------------------------------------------------------------------|
A|-3------------------------------------------------3---------------------|
E|-------------------------------------------3----------------------------|

[Chorus]
         C            am             F
e|-------0-------0-------------------1---1-----|
B|-------1-------0-------------------1---1-----|
G|-------0-------0-------------------2---2-----|
D|-------2-------0-------------------3---3-----|
A|-3-----3---2---2----0--------------3---3-----|
E|-------0-------0-----------1-------1---1-----|

       C           G    C
e|-----0---0-------3----0----------------------|
B|-----1---1-------0----1----------------------|
G|-----0---2-------0----0----------------------|
D|-----2---3-------0----2----------------------|
A|-3---3---0-------2----3----------------------|
E|-----0---0-------3----0----------------------|

e|---------------------------------------------|
B|---------------------------------------------|
G|---------------------------------------------|
D|---------------------------------------------|
A|----0-2----3---------------------------------|
E|-3------3------------------------------------|

And start again...

[Verse]
        C            am                 F
e|------0-------0----------------------1--1---------|
B|------1-------0----------------------1--1---------|
G|------0-------0----------------------2--2---------|
D|------2-------0----------------------3--3---------|
A|-3----3----2--2----0-----------------3--3---------|
E|------0-------0----------0-1---------1--1---------|

[Bridge]
Everything gonna be all right
C I I I        G I I I
Everything gonna be all right
Am V              F

[Chorus]
         C            am             F
e|-------0-------0-------------------1---1-----|
B|-------1-------0-------------------1---1-----|
G|-------0-------0-------------------2---2-----|
D|-------2-------0-------------------3---3-----|
A|-3-----3---2---2----0--------------3---3-----|
E|-------0-------0-----------1-------1---1-----|

       C           G    C
e|-----0---0-------3----0----------------------|
B|-----1---1-------0----1----------------------|
G|-----0---2-------0----0----------------------|
D|-----2---3-------0----2----------------------|
A|-3---3---0-------2----3----------------------|
E|-----0---0-------3----0----------------------|

e|---------------------------------------------|
B|---------------------------------------------|
G|---------------------------------------------|
D|---------------------------------------------|
A|----0-2----3---------------------------------|
E|-3------3------------------------------------|

[Outro]
  C                           Am
e|-0-------0-------------0----------------0-------1---------|
B|------------1-------------0----------------1------1-------|
G|-----0--------------0--------------2-------2---------2----|
D|-------------------------------------------3--------------|
A|-3-------------2-------------0----------------------------|
E|----------------------------------------------------------|

e|-------0----------0--1--0------------------------------------|
B|----------1-----------------3------------1-------------------|
G|----0-------------0--2--0-------------0----------------------|
D|-----------------------------------2-------------------------|
A|-3------------------------------0----------------------------|
E|-------------------------------------------------------------|

            
            
Suggest correction
Creating personal tab
Creating personal tab
You can edit any tab online and save it as your Personal.

You can edit, replace or remove any tab part or add personal notes – all changes will be seen only by you.

Personal tabs can be accessed anytime from any device, even offline.
Learn more »
comments
print report bad tab
5 comments total. Showing first comments.
0 reply
liquidline156 51 Jan 01, 2007 06:04 AM

no.

-2 reply
king dan 52 Jun 03, 2007 08:55 PM

haha i dont know how good you think you are calling this an intermediate difficulty tab.. but you're pretty crap

0 reply
habalushy 1,035 Dec 09, 2008 06:10 PM

in the intro part, the past part with the last four chords/notes,
the:
-0-1

should be:
-0-2

guest
Wanna post a correction for this tab? Suggest correction