Oops, an error
Loading. Please wait.

Stir It Up bass

version 1
version 1

Whole song

Interactive

127,959 views 117 this week
11 commentsread comments
1 2 3 4 5
x 48
add to favorites
×
Save as Personal and add changes to this tab that will be seen only by you. Learn more ›
×
You can save this tab as Personal to edit and correct it or add notes. All changes will be seen only by you. Learn more »
launch autoscroll
font size
0
reset
guitar tuner
edit
Autoscroll
slow
fast
+/-
esc
set tempo
stop
Author
Unregistered
                                                 x5  
G||---|----|---|----||----------|---------------4||
D||---|----|---|----||----------|-----4-7-----6--||
A||---|-r--|-r-|--r-||---4-4-5-4|-4-5-----5-7----||
E||-5-|----|---|----||-5--------|----------------||

                       x4                           x4
G|----------|----------||----------|---------------4|
D|----------|-------4--||----------|-----4-7-----6--|
A|-------4--|-5-7-7---5||---4-4-5-4|-4-5-----5-7----|
E|-5-7-7---5|----------||-5--------|----------------|
   
                       x4                           x4
G|----------|----------||----------|---------------4|
D|----------|-------4--||----------|-----4-7-----6--|
A|-------4--|-5-7-7---5||---4-4-5-4|-4-5-----5-7----|
E|-5-7-7---5|----------||-5--------|----------------|
   
                       x4                           x5
G|----------|----------||----------|---------------4|
D|----------|-------4--||----------|-----4-7-----6--|
A|-------4--|-5-7-7---5||---4-4-5-4|-4-5-----5-7----|
E|-5-7-7---5|----------||-5--------|----------------|
   
                       x4                           x4
G|----------|----------||----------|---------------4|
D|----------|-------4--||----------|-----4-7-----6--|
A|-------4--|-5-7-7---5||---4-4-5-4|-4-5-----5-7----|
E|-5-7-7---5|----------||-5--------|----------------|
   
                       x4                           x6
G|----------|----------||----------|---------------4|
D|----------|-------4--||----------|-----4-7-----6--|  (fading)
A|-------4--|-5-7-7---5||---4-4-5-4|-4-5-----5-7----|
E|-5-7-7---5|----------||-5--------|----------------|



************************

|r   Rest

************************ 

            
            
Suggest correction
Creating personal tab
Creating personal tab
You can edit any tab online and save it as your Personal.

You can edit, replace or remove any tab part or add personal notes – all changes will be seen only by you.

Personal tabs can be accessed anytime from any device, even offline.
Learn more »
comments
print report bad tab
11 comments total. Showing first comments.
+1 reply
RamonesGirl 10 Jan 17, 2006 11:02 AM

nice tab :)

+2 reply
mattydread 2,677 Aug 01, 2006 05:29 AM

This tab is spot on, one of the first i learned.
Keep doin it....
mattydread

-2 reply
kingurth 155 Oct 18, 2006 04:36 PM

It's really hard to read and confusing. I think you have the notes right, though.

guest
Wanna post a correction for this tab? Suggest correction