Oops, an error
Loading. Please wait.

Them Belly Full bass

version 1
version 1

Whole song

Interactive

7,815 views 12 this week
2 commentsread comments
1 2 3 4 5
x 4
add to favorites
×
Save as Personal and add changes to this tab that will be seen only by you. Learn more ›
×
You can save this tab as Personal to edit and correct it or add notes. All changes will be seen only by you. Learn more »
launch autoscroll
font size
0
reset
guitar tuner
edit
Autoscroll
slow
fast
+/-
esc
set tempo
stop
                       BOB MARLEY and THE WAILERS

                     THEM BELLY FULL (but we hungry)

                          album:  NATTY DREAD
        INTRO
G ||-------------------------------------------------------|| 
D ||---------5----7------7-5--------7-----5--------7-5-----|| 
A ||---7---5----7------------7----7-----5------3--------7--|| 
E ||7----------------------------------------3-------------|| 

        CHORUS
G ||--------------------------------------------------|| 
D ||--------------------------------------------------|| 
A ||---7-5----------------------7-5----------8-8-7----|| 
E ||-O-----7--5-5---3-3-2-----O------7--5-5-----------|| 

        
     "We're gonna dance..."   
G ||----------------------------------------------||
D ||-------------------------7---------7----------||
A ||-O-5-O-5------------5------7-O-------7-O------||
E ||-----------33333------------------------------||


        "Forget your troubles..."
G ||----------------------------------------------||
D ||-------------------7--------7-----------------||
A ||-O-555--------5------7-O------7-O-------------||
E ||--------333-----------------------------------||

          "We're gonna chuck...."
G ||----------------------------------------------||
D ||------------------------7---------------------||
A ||-O-555--------------------7-O-----------------||
E ||--------333----3--5---------------------------||

corrections and stuff to:
c.duffy@ireland.com

            
            
Suggest correction
Creating personal tab
Creating personal tab
You can edit any tab online and save it as your Personal.

You can edit, replace or remove any tab part or add personal notes – all changes will be seen only by you.

Personal tabs can be accessed anytime from any device, even offline.
Learn more »
comments
print report bad tab
2 comments total.
0 reply
JonDLeary 60 Mar 01, 2009 03:00 PM

CHORUS
G ||--------------------------------------------------||
D ||--------------------------------------------------||
A ||---7-5----------------------7-5----------8-8-7----||
E ||-O-----7--5-5---1-1-0-----O------7--5-5-----------||

The correction changed 3-3-2 on the E string to 1-1-0.

0 reply
mattydread 2,677 Jun 19, 2009 12:57 PM

you're both wrong it's
chorus;
G---------------------------|
D---------------------------|
A---753----------753--8-87--|
E--0----531-10--0---53------|

also the intro and the verses are wrong,
gonna tab this myself i think

guest
Wanna post a correction for this tab? Suggest correction