Oops, an error
Loading. Please wait.

Them Belly Full bass

version 2
version 2

Whole song

Interactive

6,486 views 9 this week
1 commentread comment
1 2 3 4 5
1 last vote to show rating
add to favorites
×
Save as Personal and add changes to this tab that will be seen only by you. Learn more ›
×
You can save this tab as Personal to edit and correct it or add notes. All changes will be seen only by you. Learn more »
launch autoscroll
font size
0
reset
guitar tuner
edit
Autoscroll
slow
fast
+/-
esc
set tempo
stop
Author
title; them belly full(but we hungry)
artist; bob marley and the wailers
bassist; aston'family man'barrett
album; natty dread
tabbed by; mattydread2@yahoo.com

i think this is pretty accurate,
the riffs are how they are played the first time,
repeat with octave variations and stuff


intro; (5)=hold note
G----------------------------------------------|
D-------5---8-----7---------------------7------|
A---7--3---6-------7--------7--5--3------7-----|
E--5----------------(5)----5--3--1--------(5)--|


chorus; X4 times
G---------------------------|
D---------------------------|
A---753----------753--8-87--|
E--0----531-10--0---53------|


verse; X3 times with slight variations
G---------------------------------------------|
D--------------7-7---7---------------7---7----|
A---753-----------7---7----753--------7---7---|
E--5----33333------5---5--5----333--5--5---5--|


play chorus X4 times


'we're gonna chuck...'play this with variations thro guitar solo
G-----------------------------------------------------|
D-----------------7------7------7------55--------7----|
A----7-------------7------7------7--------5-------7---|
E--55-5-333--5-5----5--5---5--5---5-533-----5-5----5--|


play chorus to fade


            
            
Suggest correction
Creating personal tab
Creating personal tab
You can edit any tab online and save it as your Personal.

You can edit, replace or remove any tab part or add personal notes – all changes will be seen only by you.

Personal tabs can be accessed anytime from any device, even offline.
Learn more »
Give kudos to tab author, rate the tab!
1 2 3 4 5
comments
print report bad tab
1 comment total.
0 reply
kingurth 155 May 14, 2010 05:39 PM

Mmmmsounds pretty good...MUCH better than the other one at least

guest
You may want to rate the tab now too:
select rating
Wanna post a correction for this tab? Suggest correction