Oops, an error
Loading. Please wait.
We have Chord Pro version of Dont Worry Be Happy.
It's the closest thing you can get to the original song and it has interactive parts. Check out the tab »
×
8,933 views 15 this week
no commentswrite comment
1 2 3 4 5
1 last vote to show rating
add to favorites
×
Save as Personal and add changes to this tab that will be seen only by you. Learn more ›
×
You can save this tab as Personal to edit and correct it or add notes. All changes will be seen only by you. Learn more »
launch autoscroll
font size
0
reset
guitar tuner
edit
Autoscroll
slow
fast
+/-
esc
set tempo
stop
Author
Don't Worry, Be Happy
Bobby McFerrin

Time Sig: 4/4			 

10 = ten, 11 = eleven, etc.        loose on the rhythm! give it some swing...
h = hammer on
s = slide up
stacked numbers are alternate frets


  B                                C#m                            E
  |   ,   .   ,   |   ,   .   ,   |   ,   .   ,   |   ,   .   ,   |   ,   .   ,   |
G|4~~~~~~~----------------------8-6~~~~~~~----------------4~~~~~----------4-------|
D|--------5s6-4---------4s6---------------6---------------------4-2~~~2-----------|
A|--------------------------------------------------------------------------------|
E|--------------------------------------------------------------------------------|

                  B       E       B       E       B               C#m\par
  |   ,   .   ,   |   ,   .   ,   |   ,   .   ,   |   ,   .   ,   |   ,   .   ,   |
G|------------4---4-----------131311--8---8-6-----4--4--------------------------8-|
D|--------4h6---6-----------------------------9-6-----6---4-------------4s6-------|
A|------------------------9--9----------------------------------------------------|
E|--------------------------------------------------------------------------------|

  E                               B       E       B       E       
  |   ,   .   ,   |   ,   .   ,   |   ,   .   ,   |   ,   .   ,   |
G|6-6-6-----------4-----------6---4-----------131311--8---8-6-----|
D|--------6-------------6-2-2---2-----------------------------9-6-|
A|------------------------7-7---7---------9--9--------------------|
E|----------------------------------------------------------------|

Just repeat and enjoy! The rest of the song is just variations on this structure, 
taking different transitions into the next chord. If you don't want to mess with 
improv, then don't 

worry! it's all the same chord structure, so simple repetition works just fine.
 

            
            
Suggest correction
Creating personal tab
Creating personal tab
You can edit any tab online and save it as your Personal.

You can edit, replace or remove any tab part or add personal notes – all changes will be seen only by you.

Personal tabs can be accessed anytime from any device, even offline.
Learn more »
Give kudos to tab author, rate the tab!
1 2 3 4 5
comments
print report bad tab
guest
You may want to rate the tab now too:
select rating
Wanna post a correction for this tab? Suggest correction