Oops, an error
Loading. Please wait.

No Lives Matter tab

version 2
version 2

Whole song

  • First version on UG, based on the song "No Lives Matter" by Body Count.
  • More accurate, contains all riffs as well as break riffs.

Interactive

967 views 18 this week
13 commentsread comments
1 2 3 4 5
2 more votes to show rating
add to favorites
×
Save as Personal and add changes to this tab that will be seen only by you. Learn more ›
×
You can save this tab as Personal to edit and correct it or add notes. All changes will be seen only by you. Learn more »
launch autoscroll
font size
0
reset
how to read this tab
guitar tuner
edit
Autoscroll
slow
fast
+/-
esc
set tempo
stop
About this tab version
More accurate, contains all riffs as well as break riffs. Was this info helpful? Yes No
[Intro]
D#|------------|
A#|--/16\------|
F#|--/16\------|
C#|------------|
G#|------------|
D#|------------|

 [Verse]
D#|-------------------------------------------------|      
A#|-------------------------------------------------|
F#|-------------------------------------------------|
C#|-------------------------------------------------|
G#|-------------------------------------------------|
D#|--3hbr--0--0--0--0-----0-----0-----0--0----0--3--|

D#|-------------------------------------------------|
A#|-------------------------------------------------|
F#|-------------------------------------------------|
C#|-------------------------------------------------|   (play 6 on D# string 
G#|--1----------------------------------------------|    if you prefer this 
D#|-------0--0--0--0-----0-----0-----0--3--2--0--2--|    over 1 on G# string)

D#|-------------------------------------------------|
A#|-------------------------------------------------|
F#|-------------------------------------------------|
C#|-------------------------------------------------|
G#|-------------------------------------------------|
D#|--3hbr--0--0--0--0-----0-----0-----0--0----0--3--|

D#|----------------------------------------|
A#|----------------------------------------|
F#|----------------------------------------|   play verse twice
C#|----------------------------------------|
G#|--1----------------------5\4---5\4---4--|
D#|-------0--0--0--0-----0--3\2-0-3\2-0-2--|

 [Pre-Chorus]
D#|------------------------------------------------------------|
D#|------------------------------------------------------------|        (keep a 2/4 power chord
F#|------------------------------------------------------------|         shape and just use fingers
C#|--------------------------5---------------------------------| x 4     1, 2 & 4 to hit the notes
G#|----4----------4----4---X-3---4---4--------4--4-------------|         on the D# string...)
D#|--5-2-------0--2----2---X-----2---2--3p2p0-2--2--2-3p2-0h2--|         
                             ^
  (if you find the switch to/from 3/5 too quick you can play just the 3)

[Chorus]
D#|---------------|------------------------------------------------------|
A#|---------------|------------------------------------------------------|
F#|---------------|------------------------------------------------------|
C#|---------------|-5-5-5-5-5-5-5-5-5-5-5-5-5-5-5-5-5-5-5-5-5-5-5-5-5-5--|
G#|--2-2-2-2-2-2--|-3-3-3-3-3-3-3-3-3-3-3-3-3-3-3-3-3-3-3-3-3-3-3-3-3-3--|
D#|--0-0-0-0-0-0--|-3-3-3-3-3-3-3-3-3-3-3-3-3-3-3-3-3-3-3-3-3-3-3-3-3-3--|

D#|---------------|--------------------------------|-------------|
A#|---------------|--------------------------------|-------------|
F#|---------------|--------------------------------|-------------|
C#|--4-4-4-4-4-4--|--------------------------------|-------------| play chorus twice
G#|--2-2-2-2-2-2--|-2-------2--2--2--2--2--2--2--2-|-7-7-7---5-5-|
D#|--2-2-2-2-2-2--|-0-------0--0--0--0--0--0--0--0-|-5-5-5---3-3-|
                         PM-----------------------|

D#|---------------|----------------------------------|      
A#|--12-----------|--13------------------------------|
F#|---------------|--------14------------------------|    chorus lead
C#|---------------|----------------------------------|    (play twice)
G#|---------------|----------------------------------|         
D#|---------------|----------------------------------|

D#|---------------|----------------------------------|--------------|      
A#|---------------|----------------------------------|--------------|
F#|--11-----------|--12------------------------------|-14-14-14--12-|   
C#|---------------|--------14------------------------|--------------|
G#|---------------|----------------------------------|--------------|
D#|---------------|----------------------------------|--------------|

 [Verse]
D#|-------------------------------------------------|      
A#|-------------------------------------------------|
F#|-------------------------------------------------|
C#|-------------------------------------------------|
G#|-------------------------------------------------|
D#|--3hbr--0--0--0--0-----0-----0-----0--0----0--3--|

D#|-------------------------------------------------|
A#|-------------------------------------------------|
F#|-------------------------------------------------|
C#|-------------------------------------------------|
G#|--1----------------------------------------------|
D#|-------0--0--0--0-----0-----0-----0--3--2--0--2--|

D#|-------------------------------------------------|
A#|-------------------------------------------------|
F#|-------------------------------------------------|
C#|-------------------------------------------------|
G#|-------------------------------------------------|
D#|--3hbr--0--0--0--0-----0-----0-----0--0----0--3--|

D#|----------------------------------------|
A#|----------------------------------------|
F#|----------------------------------------|   play verse twice
C#|----------------------------------------|
G#|--1----------------------5\4---5\4---4--|
D#|-------0--0--0--0-----0--3\2-0-3\2-0-2--|

 [Pre-Chorus]
D#|------------------------------------------------------------|
D#|------------------------------------------------------------|
F#|------------------------------------------------------------|
C#|--------------------------5---------------------------------| x 4
G#|----4----------4----4---X-3---4---4--------4--4-------------|
D#|--5-2-------0--2----2---X-----2---2--3p2p0-2--2--2-3p2-0h2--|

[Chorus]
D#|---------------|------------------------------------------------------|
A#|---------------|------------------------------------------------------|
F#|---------------|------------------------------------------------------|
C#|---------------|-5-5-5-5-5-5-5-5-5-5-5-5-5-5-5-5-5-5-5-5-5-5-5-5-5-5--|
G#|--2-2-2-2-2-2--|-3-3-3-3-3-3-3-3-3-3-3-3-3-3-3-3-3-3-3-3-3-3-3-3-3-3--|
D#|--0-0-0-0-0-0--|-3-3-3-3-3-3-3-3-3-3-3-3-3-3-3-3-3-3-3-3-3-3-3-3-3-3--|

D#|---------------|--------------------------------|-------------|
A#|---------------|--------------------------------|-------------|
F#|---------------|--------------------------------|-------------|
C#|--4-4-4-4-4-4--|--------------------------------|-------------| play chorus twice
G#|--2-2-2-2-2-2--|-2-------2--2--2--2--2--2--2--2-|-7-7-7---5-5-|
D#|--2-2-2-2-2-2--|-0-------0--0--0--0--0--0--0--0-|-5-5-5---3-3-|
                         PM-----------------------|

D#|---------------|----------------------------------|      
A#|--12-----------|--13------------------------------|
F#|---------------|--------14------------------------|    chorus lead
C#|---------------|----------------------------------|    (play twice)
G#|---------------|----------------------------------|         
D#|---------------|----------------------------------|

D#|---------------|----------------------------------|--------------|      
A#|---------------|----------------------------------|--------------|
F#|--11-----------|--12------------------------------|-14-14-14--12-|   
C#|---------------|--------14------------------------|--------------|
G#|---------------|----------------------------------|--------------|
D#|---------------|----------------------------------|--------------|

 [Break]
             ..they can tell, who to fuck with
                                             v
D#|---------------------------------------|---------------------------------------|
A#|---------------------------------------|---------------------------------------|
F#|---------------------------------------|---------------------------------------|
C#|---------------------------------------|---------------------------------------|
G#|-2-------------------------------------|--2------------------------------------|
D#|-0-------------------------------------|--0------------------------------------|

    ...they know you can't fight back,
       but we about to... 
                         v
                   D#|----------------------------|
                   D#|----------------------------|
   bass riff but   F#|----------------------------|
   can be played   C#|----------------------------| x 12
     like this     G#|----------------------------|
                   D#|---0---0---0--5---3-5---3---| 
                      PM-----------------------|

D#|-----------------------|----------------------|
A#|-----------------------|----------------------|
F#|-----------------------|----------------------|
C#|-----------------------|----------------------|
G#|-----------------------|--------g1/2--0-0-----|
D#|--0------g3/5--3-3---2-|-0------------------3-|

D#|-----------------------|------------------------|
A#|-----------------------|------------------------|
F#|-----------------------|------------------------|
C#|-----------------------|----------4---2---------|
G#|-----------------------|--------X-2---0---5---4-|
D#|--0------g3/5--3-3---2-|-0------X---------3---2-|

[Outro]
D#|---------------|------------------------------------------------------|
A#|---------------|------------------------------------------------------|
F#|---------------|------------------------------------------------------|
C#|---------------|-5-5-5-5-5-5-5-5-5-5-5-5-5-5-5-5-5-5-5-5-5-5-5-5-5-5--|
G#|--2-2-2-2-2-2--|-3-3-3-3-3-3-3-3-3-3-3-3-3-3-3-3-3-3-3-3-3-3-3-3-3-3--|
D#|--0-0-0-0-0-0--|-3-3-3-3-3-3-3-3-3-3-3-3-3-3-3-3-3-3-3-3-3-3-3-3-3-3--|

D#|---------------|--------------------------------|-------------|
A#|---------------|--------------------------------|-------------|
F#|---------------|--------------------------------|-------------| play outro
C#|--4-4-4-4-4-4--|--------------------------------|-------------|  4 times 
G#|--2-2-2-2-2-2--|-2-------2--2--2--2--2--2--2--2-|-7-7-7---5-5-|
D#|--2-2-2-2-2-2--|-0-------0--0--0--0--0--0--0--0-|-5-5-5---3-3-|

************************************

| x   Dead note
| g   Grace note
| h   Hammer-on
| p   Pull-off
| r   Release
| b   Bend
| /   Slide up
| \   Slide down
| PM  Palm mute

************************************

            
            
Suggest correction
Creating personal tab
Creating personal tab
You can edit any tab online and save it as your Personal.

You can edit, replace or remove any tab part or add personal notes – all changes will be seen only by you.

Personal tabs can be accessed anytime from any device, even offline.
Learn more »
Give kudos to tab author, rate the tab!
1 2 3 4 5
comments
print report bad tab
13 comments total. Showing first comments.
0 reply
ender872 126 Jun 13, 2017 06:20 PM, edited at 10:20 pm

Thanks for this, saves me from trying to learn the song by ear. It's very well done.

+1 reply
DropDeee 4,234 Jun 13, 2017 11:45 PM

That's the beauty of tabs! Haha. Glad it could be of use to you :)

0 reply
ender872 126 Jun 28, 2017 10:12 PM

Oh, but I did hear 2 more simple guitar parts that were missing from the tab. I recorded the entire song if you want to hear the parts instead of me trying to explain it with words. The lead guitar part during the chorus isn't just a single note, it's eighth notes. And the rhythm guitar part during the bass solo. It's a simple palm mute with a Wah pedal slowly moving up and down playing a single repeating riff. Other than that, it's fucking flawless.

Oh shit, I literally just heard another guitar part, while writing this, hiding in the pre-chorus. It's very quiet, but it sounds like a bend on the 2nd string. My guitar is in standard tuning right now, but it was on the 6th fret, so it should be on the 7th fret in the song's tuning, and you just bend up a half step or to the 8th, then back down. I can barely hear it though, so there might be another note he is using as a "drone"... But I'm sure that is in it. 100%

https://soundcloud.com/jordon-kristoffer-casares/no-lives-matter-body-count-leadrhythmbasscover

guest
You may want to rate the tab now too:
select rating
Wanna post a correction for this tab? Suggest correction