Oops, an error
Loading. Please wait.

Not The Same bass

version 2
version 2

Whole song

Interactive

by Bodyjar
923 views 3 this week
no commentswrite comment
1 2 3 4 5
x 4
add to favorites
×
Save as Personal and add changes to this tab that will be seen only by you. Learn more ›
×
You can save this tab as Personal to edit and correct it or add notes. All changes will be seen only by you. Learn more »
launch autoscroll
font size
0
reset
guitar tuner
edit
Autoscroll
slow
fast
+/-
esc
set tempo
stop
Author
+++++++++++++++++++++++++
| Bodyjar- Not The Same |
+++++++++++++++++++++++++


"You're not the person that I believed in yesterday..."


What a great punk rock song!!


Tuning: EADG



Intro
1.
G|--------------------------------------------------------------|
D|-22-222-2222-222----------------------------------------------|
A|----------------33-333-3333-33344-444-4444-44400-000-0000-000-|--x2
E|--------------------------------------------------------------|

Verse
"Think of all the things I do..."
2.
G|------------------------------------------------------------|
D|-------------------------------------------------44-66-7764-|
A|-77-777-7767-777-------7767-77744-444-6667-77700------------|--x2
E|----------------44-444--------------------------------------|

Pre-Chorus
"Dont say I told you so..."
3.
G|-------------------------------------------------------------------|
D|-------------------------------------------------------------------|
A|-44444444-33333333----------------44444444-33333333--------------2-|
E|-------------------22-222-2222-222------------------22-222-22222---|

Chorus
"You're not the same..."
4.
G|-------------------------------------------------------------------------|
D|-------------------------------77676-------------------------------------|
A|-0-000000-7-777777-4-444444-0-0------0-000000-7-7777777----------------2-|
E|--------------------------------------------------------22222222-22222---|

"You're not the same..."
5.
G|--------------------------------------------------------------------------|
D|-------------------------------77676--------------------------------------|
A|-0-000000-7-777777-4-444444-0-0------0-000000-7-7777777-------------------|
E|--------------------------------------------------------22222222-22222222-|

Outro
6.
G|--------------------------------------------------------------|
D|-22-222-2222-222----------------------------------------------|
A|----------------33-333-3333-33344-444-4444-44400-000-0000-000-|--x2
E|--------------------------------------------------------------|

Verse
"I cant hold it back you see.."
7.
G|------------------------------------------------------------|
D|-------------------------------------------------44-66-7764-|
A|-77-777-7767-777-------7767-77744-444-6667-77700------------|--x2
E|----------------44-444--------------------------------------|

Pre-Chorus
"Dont say I told you so..."
8.
G|-------------------------------------------------------------------|
D|-------------------------------------------------------------------|
A|-44444444-33333333----------------44444444-33333333--------------2-|
E|-------------------22-222-2222-222------------------22-222-22222---|

Chorus
"You're not the same..."
9.
G|-------------------------------------------------------------------------|
D|-------------------------------77676-------------------------------------|
A|-0-000000-7-777777-4-444444-0-0------0-000000-7-7777777----------------2-|
E|--------------------------------------------------------22222222-22222---|

"You're not the same..."
10.
G|--------------------------------------------------------------------------------------------|
D|-------------------------------77676--------------------------------------44444444-44444444-|
A|-0-000000-7-777777-4-444444-0-0------0-000000-7-7777777-------------------------------------|
E|--------------------------------------------------------22222222-22222222-------------------|

Bridge
11.
G|----------------------44421----------------------11124-|
D|-2~-2~-22-222------------------------------------------|
A|--------------0~-0~-0-------4~-4~-44-444-0~-0~-0-------|
E|-------------------------------------------------------|

12.
G|----------------------44421--------------------------------------|
D|-2~-2~-22-222----------------------------------------------------|
A|--------------0~-0~-0-------4~-4~-44-444-0~----0~----0~----0~----|
E|-----------------------------------------------------------------|

Pre-Chorus
"Dont say I told you so..."
13.
G|-------------------------------------------------------------------|
D|-------------------------------------------------------------------|
A|-44444444-33333333----------------44444444-33333333--------------2-|
E|-------------------22-222-2222-222------------------22-222-22222---|

Chorus
"You're not the same..."
14.
G|-------------------------------------------------------------------------|
D|-------------------------------77676-------------------------------------|
A|-0-000000-7-777777-4-444444-0-0------0-000000-7-7777777----------------2-|
E|--------------------------------------------------------22222222-22222---|

"You're not the same..."
15.
G|--------------------------------------------------------------------------------------------|
D|-------------------------------77676--------------------------------------44444444-44444444-|
A|-0-000000-7-777777-4-444444-0-0------0-000000-7-7777777-------------------------------------|
E|--------------------------------------------------------22222222-22222222-------------------|

Outro
16.
G|--------------------------------------------------------------|
D|-22-222-2222-222----------------------------------------------|
A|----------------33-333-3333-33344-444-4444-44400-000-0000-000-|
E|--------------------------------------------------------------|

17.
G|--------------------------------------------------------------|
D|-22-222-2222-22244-444-4444-44466-666-6666-66677-777-7777-777-|
A|--------------------------------------------------------------|
E|--------------------------------------------------------------|

18.
G|-------------------------------|
D|-2~----------------------------|
A|-------------------7~----6~-7x-|
E|----------------------4~-------|


Please rate thanks!!



Lyrics:


Think of all the things I do
And I still hold the thought of you
With someone else I know its true so faraway
And I can only hold my breath
And start to die a lonely death
With you and me and all the rest so faraway

Don't say I told you so
One thing you'll never know

You're not the same
You've changed
I don't need you anyway
You're not the person
That I believed in yesterday

I can't hold it back you see
I know it all comes back to me
You must have practiced hard to be so faraway
Never wanted me to show
Just write me off I let you go
And now there's more for you to know
So faraway

Something's missing anyway



+++++++++++++++++++++++++++++++++
| Raileff                       |
| Underground__Dora@Hotmail.Com |
+++++++++++++++++++++++++++++++++

            
            
Suggest correction
Creating personal tab
Creating personal tab
You can edit any tab online and save it as your Personal.

You can edit, replace or remove any tab part or add personal notes – all changes will be seen only by you.

Personal tabs can be accessed anytime from any device, even offline.
Learn more »
comments
print report bad tab
guest
You may want to rate the tab now too:
select rating
Wanna post a correction for this tab? Suggest correction