Oops, an error
Loading. Please wait.

I Like The Way You Move bass

version 1
version 1

Whole song

Interactive

12,013 views 9 this week
no commentswrite comment
1 2 3 4 5
x 4
add to favorites
×
Save as Personal and add changes to this tab that will be seen only by you. Learn more ›
×
You can save this tab as Personal to edit and correct it or add notes. All changes will be seen only by you. Learn more »
launch autoscroll
font size
0
reset
guitar tuner
edit
Autoscroll
slow
fast
+/-
esc
set tempo
stop
Author
-------------------------------------------------------------------------------
	             I like the way you move - Bodyrockers
-------------------------------------------------------------------------------

Tabbed By : Tommy Robin
e-mail: ockeroid@hotmail.com

Tuning: Standard (EADG)

A very simple but awesome sounding song. In the recording they use loads of 
effects and pretty much cycle through which instrument's turn is is to use an 
effect. I think they use a wah-wah really slowly, though it might just be 
equalizer stuff done in mixing.
It's a pretty boring song to play on your own if you don't have effects, but 
it's fun to play along to the track :)


Intro
G|----------------|----------------|
D|----------------|----------------|
A|----------------|----------------|
E|4-4-2-2-4-----4-|4-4-2-2-4-------|


Main riff
G|----------------|----------------|----------------|--6-------4-----|
D|----------------|----------6-----|----------------|----------------|
A|----------------|----------------|--------------4~|~~----2~~~------|
E|4-4-2-2-4-----4~|~~4-2-2-4-------|4-4-2-2-4-------|--------------4-|


End of Verse/Pre-Chorus
G|----------------|----------------|----------------|----------------|
D|----------------|----------------|----------------|----------------|
A|--------------4~|~~~~--2~~~~---4~|~~~~--2~~~~---4~|~~~~--2~~~~---4~|
E|----------------|----------------|----------------|----------------|
             #But, most of all...        Yeah...

G|----------------|----------------|
D|----------------|----------------|
A|4---4---4---4---|4---------------|
E|----------------|----------------|
  Most of all...   I like the way you...#


Bridge
G|----------------|----------------|----------------|----------------|
D|----------------|----------------|----------------|----------------|
A|----------------|----------------|--------------4~|~~~~--2~~~~---2-|
E|2-2-2-2-2-2-2-2-|2-2-2-2-2-2-2-2-|2-2-2-2-2-2-2---|----------------|


Tab Key
 ~  Hold note
 #  Lyrics


The basic structure is:
 Intro 
 Main Riff
 Pre-Chorus, Main Riff
 Pre-Chorus, Main Riff
 Bridge
 Pre-Chorus, Main Riff
 Intro
 Repeat until you feel like stopping
                                                                     18.12.06
===============================================================================

            
            
Suggest correction
Creating personal tab
Creating personal tab
You can edit any tab online and save it as your Personal.

You can edit, replace or remove any tab part or add personal notes – all changes will be seen only by you.

Personal tabs can be accessed anytime from any device, even offline.
Learn more »
comments
print report bad tab
guest
You may want to rate the tab now too:
select rating
Wanna post a correction for this tab? Suggest correction