Oops, an error
Loading. Please wait.

Shuffle Acoustic bass

version 3
version 3

Whole song

Interactive

685 views 1 this week
no commentswrite comment
1 2 3 4 5
x 3
add to favorites
×
Save as Personal and add changes to this tab that will be seen only by you. Learn more ›
×
You can save this tab as Personal to edit and correct it or add notes. All changes will be seen only by you. Learn more »
launch autoscroll
font size
0
reset
guitar tuner
edit
Autoscroll
slow
fast
+/-
esc
set tempo
stop
This tab is pretty accurate, but I can't guarantee that it's one hundred per cent
true to what Ed plays.
There are four parts to the acoustic version of this wonderful rendition.
See the structure below the tablature for a guide as to when to play each part.

Tablature:

Part One
G ------141211-----|
D ----12-------120-|
A -10--------------|
E -----------------|

Part Two
G ------------|
D -----754----|
A ---5-----50-|
E -3----------|

Part Three
G -----754--------754------754--------754------|
D ---5----50----5----50---5---50---5------50---|
A -3----------7---------5----------------------|
E -------------------------------5-------------|

G -----754--------754------754--------754------|
D ---5----50----5----50---5---50---5------50---|
A -3----------7---------5--------5-------------|
E ---------------------------------------------|

Part Four
G -------------------------------------|
D -------------------------------------|
A -10---/15---7---5---7---3---/10---5--|
E -------------------------------------|

Structure:

Verse
Part One x 2
Part Two x 4
Part One x 4

Chorus
Part Three x 1

Verse
Part One x 2
Part Two x 4
Part One x 4

Chorus
Part Three x 2

Bridge -> "You gave to me, all I know..."
Part Four x 3

Bridge-> "Running back, we're gonna make it through this..."
Part One x 4

Chorus
Part Three x 2

End on the third fret of the E string after the open D string at the end of Part Three.

            
            
Suggest correction
Creating personal tab
Creating personal tab
You can edit any tab online and save it as your Personal.

You can edit, replace or remove any tab part or add personal notes – all changes will be seen only by you.

Personal tabs can be accessed anytime from any device, even offline.
Learn more »
Give kudos to tab author, rate the tab!
1 2 3 4 5
comments
print report bad tab
guest
You may want to rate the tab now too:
select rating
Wanna post a correction for this tab? Suggest correction