Oops, an error
Loading. Please wait.
We have an official Its My Life tab made by UG professional guitarists. Check out the tab »
×
9,160 views 9 this week
9 commentsread comments
1 2 3 4 5
x 9
add to favorites
×
Save as Personal and add changes to this tab that will be seen only by you. Learn more ›
×
You can save this tab as Personal to edit and correct it or add notes. All changes will be seen only by you. Learn more »
launch autoscroll
font size
0
reset
guitar tuner
backing track
0:00
0:00
edit
Autoscroll
slow
fast
+/-
esc
set tempo
stop
Author
Difficulty
*Just to address the confusion* This IS a BASS tab

G|-----------------------------------------------------------------|
D|-----------------------------------------------------------------|
A|-----------------------------------------------------------------|
E|-----------------------------------------------------------------|
B|-1---1---------------------3-4-3-1---1---------------------------|
   1 2 3 4 1 2 3 4 1 2 3 4 1 2 3 4 1 2 3 4 1 2 3 4 1 2 3 4 1 2 3 4
0:08
G|-----------------------------------------------------------------|
D|-----------------------------------------------------------------|
A|---------------------------------------------1h3---------3-3-6-3-|
E|-----------------------------------------------------------------|
B|-1-------------------------------1---1---1-1-----1-1-1-----------|
   1 2 3 4 1 2 3 4 1 2 3 4 1 2 3 4 1 2 3 4 1 2 3 4 1 2 3 4 1 2 3 4
0:15
G|-----------------------------------------------------------------|
D|-----------------------------------------------------------------|
A|-------------1-3---------3-3-6-3-------------1h3---------3-3-6-3-|
E|-----------------------------------------------------------------|
B|-1---1---1-1-----1-1-1-----------1---1-----------1-1-1-----------|
   1 2 3 4 1 2 3 4 1 2 3 4 1 2 3 4 1 2 3 4 1 2 3 4 1 2 3 4 1 2 3 4
0:24 
G|-----------------------------------------------------------------|
D|-----------------------------------------------------------------|
A|---------3-3-------------3-3-------------------------------------|
E|-----------------------------------------------------------------|
B|-1---1-------1-1-1-1-1-1-----1-1-1-1-1-1---1-1-1---1-1-1---1-1-1-|
   1 2 3 4 1 2 3 4 1 2 3 4 1 2 3 4 1 2 3 4 1 2 3 4 1 2 3 4 1 2 3 4
0:34
G|-----------------------------------------------------------------|
D|-----------------------------------------------------------------|
A|---------------------------1-3-1-6-6-6-6-6-5-8-6-5-5-5-5-5-5-6-5-|
E|-------------1-3-4-4-4-4-4---------------------------------------|
B|-1-1-1-1-1-1-----------------------------------------------------|

G|-----------------------------------------------------------------|
D|---------------3-6-6-6-6-6-8-6-5---------------------------------|
A|-3-3-3-3-3-5-6-------------------1-1-1-1-1-1-1-1-1-1-1-1-2-2-2-1-|
E|-----------------------------------------------------------------|
B|-----------------------------------------------------------------|

0:50
G|-----------------------------------------------------------------|
D|-----------------------------------------------------------------|
A|-3-3-3-3-3-3---------------1-3-1-6-6-6-6-6-6-8-6-5-5-5-5-5-6-5-1-|
E|-------------1-3-4-4-4-4-4---------------------------------------|
B|-----------------------------------------------------------------|

G|-----------------------------------------------------------------|
D|---------------3-6-6-6-6-8---------------------------------------|
A|-3-3-3-3-3-5-6-------------6-5-3-1-1-1-1-1-1-1-1-1-1-1-1-2-2-2-2-|
E|-----------------------------------------------------------------|
B|-----------------------------------------------------------------|

1:06
G|-----------------------------------------------------------------|
D|-----------------------------------------------------------------|
A|-----------------------------------------------------------------|
E|-----------------------------------------------------------------|
B|-1---1---------------------------1---1---------------------------|

1:13
G|-----------------------------------------------------------------|
D|-----------------------------------------------------------------|
A|---------------------------------------------1h3---------3-3-6-3-|
E|-----------------------------------------------------------------|
B|-1-------------------------------1---1---1-1-----1-1-1-----------|

G|-----------------------------------------------------------------|
D|-----------------------------------------------------------------|
A|-------------1-3---------3-3-6-3-------------1h3---------3-3-6-3-|
E|-----------------------------------------------------------------|
B|-1---1---1-1-----1-1-1-----------1---1-----------1-1-1-----------|

1:29 
G|-----------------------------------------------------------------|
D|-----------------------------------------------------------------|
A|-----------------3---3---3-3-3---8-8-8-8-8-8-8---8---8-----8-8-8-|
E|-----------------------------------------------------------------|
B|-1---1---1-1-1---------------------------------------------------|

1:40 
G|-----------------------------------------------------------------|
D|-----------------------------------------------------------------|
A|---------------------------1-3-1-6-6-6-6-6-6-8-6-5-5-5-5-5-6-5-1-|
E|-------------1-3-4-4-4-4-4---------------------------------------|
B|-1-1-1-1-1-1-----------------------------------------------------|

G|-----------------------------------------------------------------|
D|---------------3-6-6-6-6-6---------------------------------------|
A|-3-3-3-3-3-5-6-------------6-5-3-1-1-1-1-1-1-1-1-1-1-1-1-2-2-2-1-|
E|-----------------------------------------------------------------|
B|-----------------------------------------------------------------|

G|-----------------------------------------------------------------|
D|-----------------------------------------------------------------|
A|-3-3-3-3-3-3---------------1-3-1-6-6-6-6-6-5-8-6-5-5-5-5-5-6-5-1-|
E|-------------1-3-4-4-4-4-4---------------------------------------|
B|-----------------------------------------------------------------|

G|-----------------------------------------------------------------|
D|---------------3-6-6-6-6-8---------------------------------------|
A|-3-3-3-3-3-5-6-------------8-5-3-1-1-1-1-1-1-1-1-1-1-1-1-2-2-2-2-|
E|-----------------------------------------------------------------|
B|-----------------------------------------------------------------|

2:12
G|-----------------------------------------------------------------|
D|-----------------------------------------------------------------|
A|-----------------------------------------------------------------|
E|-4-4-4-4-4-4-4-4-4-4-4-4-4-4-4-4-6-6-6-6-6-6-6-6-6-6-6-6-6-6-6-6-|
B|-----------------------------------------------------------------|

G|-----------------------------------------------------------------|
D|-----------------------------------------------------------------|
A|-------------------------------------------------------------6-5-|
E|-8-8-8-8-8-8-8-8-8-8-8-8-8-8-8-8---------------------------------|
B|---------------------------------6-6-6-6-6-6-6-6-6-6-6-6-6-4-----|

G|-----------------------------------------------------------------|
D|-----------------------------------------------------------------|
A|-3---------------------------------------------------------------|
E|-----------------------------------------------------------------|
B|-----------------------------------------------------------------|

G|-----------------------------------------------------------------|---------|
D|-----------------------------------------------------------------|---------|
A|-----------------------------------------------------------------|---------|
E|-----------------------------------------------------------------|---------|
B|-1---------------------------------------------------------------|-1---1---|

2:38
G|-----------------------------------------------------------------|
D|-----------------------------------------------------------------|
A|---------------------------1-3-1-6-6-6-6-6-6-8-6-5-5-5-5-5-6-5-1-|
E|-------------1-3-4-4-4-4-4---------------------------------------|
B|-1-1-1-1-1-1-----------------------------------------------------|

G|-----------------------------------------------------------------|
D|---------------3-6-6-6-6-8---------------------------------------|
A|-3-3-3-3-3-5-6-------------6-6-5-1-1-1-1-1-1-1-1-1-1-1-1-2-2-2-1-|
E|-----------------------------------------------------------------|
B|-----------------------------------------------------------------|

2:54
G|-----------------------------------------------------------------|
D|-----------------------------------------------------------------|
A|-3-------------------------1-3-1-6-6-6-6-6-5-8-6-5-5-5-5-5-6-5-1-|
E|-------------1-3-4-4-4-4-4---------------------------------------|
B|-----------------------------------------------------------------|

G|-----------------------------------------------------------------|
D|---------------3-6-6-6-6-8---------------------------------------|
A|-3-3-3-3-3-5-6-------------8-5-3-1-1-1-1-1-1-1-1-1-1-1-1-2-2-2-2-|
E|-----------------------------------------------------------------|
B|-----------------------------------------------------------------|

3:09
G|-----------------------------------------------------------------|
D|-----------------------------------------------------------------|
A|-3-3-3-3-3-3---------------1-3-1-6-6-6-6-6-6-1-3-5-5-5-5-5-6-5-1-|
E|-------------1-3-4-4-4-4-4---------------------------------------|
B|-----------------------------------------------------------------|

G|-----------------------------------------------------------------|
D|---------------3-6-6-6-6-8---------------------------------------|
A|-3-3-3-3-3-5-6-------------8-5-3-1-1-1-1-1-1-1-1-1-1-1-1-2-2-2-2-|
E|-----------------------------------------------------------------|
B|-----------------------------------------------------------------|

3:26
G|-----------------------------------------------------------------|
D|-----------------------------------------------------------------|
A|---------------------------1-3-1-6-6-6-6-6-5-8-6-5-5-5-5-5-5-6-5-|
E|-------------1-3-4-4-4-4-4---------------------------------------|
B|-1-1-1-1-1-1-----------------------------------------------------|

G|-----------------------------------------------------------------|
D|---------------3-6-6-6---6---------------------------------------|
A|-3-3-3-3-3-5-6---------6---6-5-3-1-1-1-1-1-1-1-1-1-1-1-1-2-2-2-2-|
E|-----------------------------------------------------------------|
B|-----------------------------------------------------------------|
Tabbed by Dave Vucko

            
            
Suggest correction
Creating personal tab
Creating personal tab
You can edit any tab online and save it as your Personal.

You can edit, replace or remove any tab part or add personal notes – all changes will be seen only by you.

Personal tabs can be accessed anytime from any device, even offline.
Learn more »
comments
print report bad tab
9 comments total. Showing first comments.
-2 reply
BassNTuba 52 Sep 30, 2013 05:23 PM

BASS not ELECTRIC!

0 reply
Teh D Bot 11,992 Sep 30, 2013 07:03 PM

ELECTRIC BASS? What are you talking about? This is a 5 string bass did you really need to vote my tab a one star because you couldn't figure that out?

0 reply
ambin.rein 10 Apr 20, 2014 03:32 AM

yeah got it , im also using a 5 string's bass now.

guest
You may want to rate the tab now too:
select rating
Wanna post a correction for this tab? Suggest correction