Oops, an error
Loading. Please wait.

These Days bass

version 1
version 1

Whole song

Interactive

335 views 3 this week
no commentswrite comment
1 2 3 4 5
3 more votes to show rating
add to favorites
×
Save as Personal and add changes to this tab that will be seen only by you. Learn more ›
×
You can save this tab as Personal to edit and correct it or add notes. All changes will be seen only by you. Learn more »
launch autoscroll
font size
0
reset
guitar tuner
edit
Autoscroll
slow
fast
+/-
esc
set tempo
stop
Author
Difficulty
Bon Jovi - These Days
Album: These Days (1995)
Tuning: Stardard G,D,A,E
Tabbed by: Zaratustra85

Piano Intro (low volume, you don't play the first time, start at 0:06)
G|--------------------------------------------------------------------------------|
D|--------------------------------------------------------------------------------|
A|--3---3-5-3~--5-7-5~--5-7~---3--3-5-3~--3-5~--5-7~--3--3-5-3~--5-7-5~--7/3------|
E|----------------------------------------------------------------------------0~--|

Guitar Riff:
G|-------------------------------------|
D|-------------------------------------|
A|---3~----5~----7~----3~----5~----7~--|
E|-------------------------------------|

Verse:
"I was walking around, just a face in the crowd..."
G|--------------------------------------------------------------------------|
D|--------------------------------------------------------------------------|
A|--3~---5~---7~--5--3~---5~---7~---7~---3~---5~---7~---3~---3~---5~--------|
E|---------------------------------------------------------------------3~---|
 
"She came looking for some shelter..."
G|--------------------------------------------------------------------------------------------|
D|---------2---------5-----------------------------------2--------------5-----------5---------|
A|-3---3-5---5---5-7----7/3-------------3-5-3----3---3-5---5--5-5---5-7----7/3----3---3-------|
E|---------------------------0----0-0-0--------------------------------------------------5/3--|

"She's seen all the disciples..."
G|--------------------------------------------------------------|
D|---------2---------5------------------------------------2-----|
A|-3---3-5---5---5-7----7/3--------3----0-0-2-3---3---3-5---5---|
E|---------------------------0-0-5------------------------------|

G|----------------------------------------------------------------------------------|
D|----------------------------------2------7/9-7-5-5-5-5-5-5-5-5-5-5-5-5-5-5-5-5-5--|
A|------------------------3-----3-5---5--5------------------------------------------|
E|-0/2--0---0-0-0-3-3-5-5-----------------------------------------------------------|

Chorus:
"These days, the stars seem out of reach..."
G|-5-------------------------------------------------------5---------------------------------------------------|
D|---5/7-5--4------------------------------------------------5/7-5--4-------5-5-5-5-5-5-5-5-5-5-5-5-5-5-5-5-5--|
A|-------------7--5---------------------------------------------------7--5-------------------------------------|
E|-------------------0-0-0-0-0-0-0-0-0-0-0-0-0-0-0-0-0---------------------------------------------------------|

"These days are fast, nothing lasts..."
G|---------------------------------------------------------------------------|
D|-----------------------------------------5-5-5-5---------------------------|
A|--3-3-3-3-3-3-3-3--5-5-5-5-5-5-5-5-5-7-5---------7-7-5-5--3-3-3-3-3-3-3-3--|
E|---------------------------------------------------------------------------|

"There ain't nobody left but us these days..."
G|----------------------------------------|
D|----------------------------7/9--7--5~--|
A|--3-3-3-3-3-3-3-3--5-5-5-5--------------|
E|----------------------------------------|

Verse 
"Jimmy shoes, he busted both his legs..."
G|--------------------------------------------------------------------------------------------|
D|---------2---------5-----------------------------------2--------------5-----------5---------|
A|-3---3-5---5---5-7----7/3-------------3-5-3----3---3-5---5--5-5---5-7----7/3----3---3-------|
E|---------------------------0----0-0-0--------------------------------------------------5/3--|

"His mamma said he was crazy..."
G|----------------------------------------------------|
D|---------2---------5-------3/5-3---------------2----|
A|-3---3-5---5---5-7----7/3---------0-0-2-3--3-5---5--|
E|----------------------------------------------------|

G|----------------------------------------------------------------------------------|
D|----------------------------------2------7/9-7-5-5-5-5-5-5-5-5-5-5-5-5-5-5-5-5-5--|
A|------------------------3-----3-5---5--5------------------------------------------|
E|-0/2--0---0-0-0-3-3-5-5-----------------------------------------------------------|

Chorus:
"These days, the stars seem out of reach..."
G|-5-------------------------------------------------------5---------------------------------------------------|
D|---5/7-5--4------------------------------------------------5/7-5--4-------5-5-5-5-5-5-5-5-5-5-5-5-5-5-5-5-5--|
A|-------------7--5---------------------------------------------------7--5-------------------------------------|
E|-------------------0-0-0-0-0-0-0-0-0-0-0-0-0-0-0-0-0---------------------------------------------------------|

"These days are fast, nothing lasts..."
G|---------------------------------------------------------------------------|
D|-----------------------------------------5-5-5-5---------------------------|
A|--3-3-3-3-3-3-3-3--5-5-5-5-5-5-5-5-5-7-5---------7-7-5-5--3-3-3-3-3-3-3-3--|
E|---------------------------------------------------------------------------|

"Even inocence just caught the midnight train..."
G|--------------------------------------------------------------------------------|
D|-----------------------------------------5-5-5-5-5-5-5-5-5-5-5-5-5-5-5-5--------|
A|--3-3-3-3-3-3-3-3--5-5-5-5-5-5-5-5-5-7-5--------------------------------5/10/3--|
E|--------------------------------------------------------------------------------|

"There ain't nobody left but us these days..."
G|--------------------------------------|
D|----------------------------------5~--|
A|--3-3-3-3-3-3-3-3--5-5-5-5-5-5-5------|
E|--------------------------------------|

Bridge:
"Oh, oh, oh oh..."
G|-----------------------------------------------------------------|
D|-----------------------------------------------------------------|
A|--0/3--3-3--3-3-3--0-0--0--0-----0/3--3-3--3-3-3--0-0--0--0------|
E|-----------------------------------------------------------------|

"I know Rome's still burning..."
G|--------------------------------------------------------------------------------------------|
D|--------------------------------------------------------------------------------------------|
A|--0/3--3-3--3-3-3--0-0--0--0-----0/3--3-3--3-3-3--0-0--0--0-----0/3--3-3--3-3-3--0-0--0--0--|
E|--------------------------------------------------------------------------------------------|

"Round and round and round and round these days..."
G|--------------------------------------------|
D|---------------------------------------7----|
A|--5-5-5-5-5-5-5-5-5-5-5-5-5-5-5-5-5-5----5--|
E|--------------------------------------------|

Guitar Solo:
G|----------------------------------------------------------------------------|
D|----------------------------------------------------------------------------|
A|-3-3-3-3-3-3-3-3-------------------5---5-5-5-5-5-5-5-5-5-5-5-5-5-5-5-5-5----|
E|-----------------3-3-3-3-3-3-3-3-3---3--------------------------------------|

G|----------------------------------------------------------------------------------|
D|----------------------------------------------------------------------------------|
A|--0-0-2-3-3-3-3-3-3-3-3-3-------------------5--5-5-5-5-5-5-5-5-5-5-5-5-5-5-5-5-5--|
E|--------------------------3-3-3-3-3-3-3-3-3--3------------------------------------|

G|-------------------------------------------------------------------------------|
D|-------------------------------------------------------------------------------|
A|--0-0-2-3-3--3-3-3-3-3-3-3-3-7-7-7-7-7-7-7--5-5-5-5-5-5-5-5-5-5-5-5-5-5-5-5-5--|
E|-------------------------------------------------------------------------------|

G|--------------------------------------------------------------------------|
D|---------------------------------------------------------5-5-5-5-5-5-5-5--|
A|-0-0-2-3-3-3-3-3-3-3-3-3-----------------5-5-5-5-5-5-5-5------------------|
E|-------------------------3-3-3-3-3-3-3-3----------------------------------|


Chorus:
"These days, the stars seem out of reach..."
G|-5-------------------------------------------------------5---------------------------------------------------|
D|---5/7-5--4------------------------------------------------5/7-5--4-------5-5-5-5-5-5-5-5-5-5-5-5-5-5-5-5-5--|
A|-------------7--5---------------------------------------------------7--5-------------------------------------|
E|-------------------0-0-0-0-0-0-0-0-0-0-0-0-0-0-0-0-0---------------------------------------------------------|

"These days are fast, love don't last..."
G|---------------------------------------------------------------------------|
D|-----------------------------------------5-5-5-5---------------------------|
A|--3-3-3-3-3-3-3-3--5-5-5-5-5-5-5-5-5-7-5---------7-7-5-5--3-3-3-3-3-3-3-3--|
E|---------------------------------------------------------------------------|

"Even inocence just caught the midnight train..."
G|--------------------------------------------------------------------------|
D|-----------------------------------------5-5-5-5-5-5-5-5-5-5-5-5-5-5-5-5--|
A|--3-3-3-3-3-3-3-3--5-5-5-5-5-5-5-5-5-7-5----------------------------------|
E|--------------------------------------------------------------------------|

"These days, the stars seem out of reach..."
G|-5-------------------------------------------------------5---------------------------------------------------|
D|---5/7-5--4------------------------------------------------5/7-5--4-------5-5-5-5-5-5-5-5-5-5-5-5-5-5-5-5-5--|
A|-------------7--5---------------------------------------------------7--5-------------------------------------|
E|-------------------0-0-0-0-0-0-0-0-0-0-0-0-0-0-0-0-0---------------------------------------------------------|

"These days are fast, nothing lasts..."
G|---------------------------------------------------------------------------|
D|-----------------------------------------5-5-5-5---------------------------|
A|--3-3-3-3-3-3-3-3--5-5-5-5-5-5-5-5-5-7-5---------7-7-5-5--3-3-3-3-3-3-3-3--|
E|---------------------------------------------------------------------------|

"There ain't nobody left, to take the blame..."
G|-----------------------------------------------------------------------|
D|-------------------------------------5-5-5-5-5-5-5-5-5-----------------|
A|--3-3-3-3-3-3-3-3--5-5-5-5-5-5-5-5-5-----------------------------------|
E|-------------------------------------------------------0-0-0-3-3-5-5---|

"Ain't nobody left but us these days..."
G|----------------------------------------|
D|----------------------------7/9--7--5~--|
A|--3-3-3-3-3-3-3-3--5-5-5-5--------------|
E|----------------------------------------|

Ending - Harmonica Solo:
G|--------------------------------------------------------------------------|
D|--------------------------------------------------------------------------|
A|--3-3-3-3-3-3-3-3--5-5-5-5-5-5-5-5-5-7-5----------------------------------|
E|------------------------------------------0-0-0-0-0-0-0-0-0-0-0-0-0-0-0-0-|

G|------------------------------------------------------------------|
D|---------------------------------5-5-5-5-5-5-5-5-5-5-5-5-5-5-5-5--|
A|--3-3-3-3-3-3-3-3-5-5-5-5-5-5-5-5---------------------------------|
E|------------------------------------------------------------------|

G|--------------------------------------------------------------------------|
D|--------------------------------------------------------------------------|
A|--3-3-3-3-3-3-3-3--5-5-5-5-5-5-5-5-5-7-5----------------------------------|
E|------------------------------------------0-0-0-0-0-0-0-0-0-0-0-0-0-0-0-0-|

G|------------------------------------------------------------------|
D|---------------------------------5-5-5-5-5-5-5-5-5-5-5-5-5-5-5-5--|
A|--3-3-3-3-3-3-3-3-5-5-5-5-5-5-5-5---------------------------------|
E|------------------------------------------------------------------|

G|------------------------------------------------------------------------------------------------------------|
D|------------------------------------------------------------------------------------------------------------|
A|-3-3-3-3-3-3-3-3--5-5-5-5-5-5-5-5-5-7-5----------------------------------3-3-3-3-3-3-3-3-5-5-5-5-5-5-5-5----|
E|-----------------------------------------0-0-0-0-0-0-0-0-0-0-0-0-0-0-0-0---------------------------------0~-|

Notes:
~ Let ring
/ Slide

            
            
Suggest correction
Creating personal tab
Creating personal tab
You can edit any tab online and save it as your Personal.

You can edit, replace or remove any tab part or add personal notes – all changes will be seen only by you.

Personal tabs can be accessed anytime from any device, even offline.
Learn more »
Give kudos to tab author, rate the tab!
1 2 3 4 5
comments
print report bad tab
guest
You may want to rate the tab now too:
select rating
Wanna post a correction for this tab? Suggest correction