Oops, an error
Loading. Please wait.

Gateway album tab

version 1
version 1

Album

Whole song

2,265 views 1 this week
no commentswrite comment
1 2 3 4 5
1 last vote to show rating
add to favorites
×
Save as Personal and add changes to this tab that will be seen only by you. Learn more ›
×
You can save this tab as Personal to edit and correct it or add notes. All changes will be seen only by you. Learn more »
launch autoscroll
font size
0
reset
how to read this tab
guitar tuner
edit
Autoscroll
slow
fast
+/-
esc
set tempo
stop
Bongzilla
Gateway (2002)
Tabbed By ruker (Varuker@gmail.com)
Tuned Down 2.5 Step BEADF#B

-------------
Key:
-------------
. Palm Mute
~ Vibrato
h Hammer-On
p Pull-Off
b Bend
r Release
/ Slide Up
\ Slide Down
-------------


------------------------------------------------------------------------------
                              1. Greenthumb
------------------------------------------------------------------------------

Riff A (0:07)                                               5x
||------------------------------------------------------------||
||*----------------------------------------------------------*||
||------------------------------------------------------------||
||--------4--6--6--4-6--4-6--4------------4--6--7--6-4--------||
||*-4--6--2--4--4--2-4--2-4--2-6--2-4--6--2--4--5--4-2--6-/--*||
||--2--4-----------------------4--0-2--4----------------4-/---||



Fill (1:15)                                    2x
||-----------------------------------------------||
||*---------------------------------------------*||
||-----------------------------------------------||
||-----------------------------------------------||
||*----2----------2----------2-------2--4-5p4-2-*||
||--4----4-2-0-4----4-2-0-4----4-2-0-------------||



Riff B (1:25)                                  4x
||-----------------------------------------------||
||*---------------------------------------------*||
||-----------------------------------------------||
||-----4----------4----------4-------4--6/7\6\4--||
||*-6--2-6-4-2-6--2-6-4-2-6--2-6-4-2-2--4/5\4\2-*||
||--4----4-2-0-4----4-2-0-4----4-2-0-------------||



Riff C (1:42)                              4x
||-------------------------------------------||
||*-----------------------------------------*||
||-------------------------------------------||
||-------4-4---------------------4--6/7\6\4--||
||*-6----2-2--6-6--4-6----6-6----2--4/5\4\2-*||
||--4---------4-4--2-4----4-4----------------||
         .    .    .      .       


Fill (2:12)                                    2x
||-----------------------------------------------||
||*---------------------------------------------*||
||-----------------------------------------------||
||-----------------------------------------------||
||*----2----------2----------2-------2--4-5p4-2-*||
||--4----4-2-0-4----4-2-0-4----4-2-0-------------||
         . . .      . . .      . . .


Riff B (2:20)                                  4x
||-----------------------------------------------||
||*---------------------------------------------*||
||-----------------------------------------------||
||-----4----------4----------4-------4--6/7\6\4--||
||*-6--2-6-4-2-6--2-6-4-2-6--2-6-4-2-2--4/5\4\2-*||
||--4----4-2-0-4----4-2-0-4----4-2-0-------------||
         . . .      . . .      . . .


Riff C (2:37)                              4x
||-------------------------------------------||
||*-----------------------------------------*||
||-------------------------------------------||
||-------4-4---------------------4--6/7\6\4--||
||*-6----2-2--6-6--4-6----6-6----2--4/5\4\2-*||
||--4---------4-4--2-4----4-4----------------||
         .    .    .      .       


Riff D (3:06)                                         6x
||------------------------------------------------------||
||*----------------------------------------------------*||
||------------------------------------------------------||
||-----------4-----------4-----------4--/7--7--6-6--6---||
||*-6--4--6--2--6--4--6--2--6--4--6--2--/5--5--4-4--4--*||
||--4--2--4-----4--2--4-----4--2--4---------------------||



Outro (3:50)                                           4x
||-------------------------------------------------------||
||*-----------------------------------------------------*||
||-------------------------------------------------------||
||-----------------------------------------7--7--6-6--6--||
||*-6--4--6-2-2--6--4--6-2-2--6--4--6-2-2--5--5--4-4--4-*||
||--4--2--4-0-0--4--2--4-0-0--4--2--4-0-0----------------||
            . .          . .          . .        .


------------------------------------------------------------------------------
                              2. Stone A Pig
------------------------------------------------------------------------------

Intro (0:08)              2x
||--------------------------||
||*------------------------*||
||--------------------------||
||--------------------------||
||*-3--1--3--4--3--1-------*||
||--------------------3-----||



Riff A (0:33)                  4x
||------------------------------||
||*----------------------------*||
||------------------------------||
||--5--3--5--6--5--3------------||
||*-3--1--3--4--3--1--5-5-5-5--*||
||--------------------3-3-3-3---||



Fill A (1:16) 
  Bass & Drums Only                                             2x
||----------------------------------------------------------------||
||*--------------------------------------------------------------*||
||*-----1-1-----3-3-----1------1h2h3-3--3--1--1------------------*||
||--3-3-----3-3-----3-3----3-3-------------------3--3-3-3-3-3-3---||



Riff B (1:33)                                                   2x
||----------------------------------------------------------------||
||*--------------------------------------------------------------*||
||----------------------------------------------------------------||
||------3-3-----5-5-----3------------5--5--3--3-------------------||
||*-5-5-1-1-5-5-3-3-5-5-1--5---1h2h3-3--3--1--1--5--5-5-5-5-5-5--*||
||--3-3-----3-3-----3-3----3-3-------------------3--3-3-3-3-3-3---||
                             .


Riff C (1:50) 6x
||--------------------------------------------------||
||*------------------------------------------------*||
||--------------------------------------------------||
||--5--5--3-3-3--5--5--6-6-5-3-6--5--5--3-3-3-------||
||*-3--3--1-1-1--3--3--4-4-3-1-4--3--3--1-1-1--5---*||
||---------------------------------------------3----||



Fill B (2:39)
  Bass & Drums Only                               2x
||--------------------------------------------------||
||*------------------------------------------------*||
||*-3--3--6-----3--3--6--------3--3--6--------6-5--*||
||-----------3-----------6-3-6----------3--3--------||



Chorus (3:12) 8x
||---------------------------------------------------------|
||*--------------------------------------------------------|
||---------------------------------------------------------|
||--5--5-3-5--5-3-8\7/8---3----5--5-3-5--5-3-8\7/8---------|
||*-3--3-1-3--3-1-6\5/6-5-1----3--3-1-3--3-1-6\5/6-5--5-5--|
||----------------------3--------------------------3--3-3--|


|-----------------------------------||
|----------------------------------*||
|-----------------------------------||
|-5--5-3-5--5-3-8\7/8---3----8--7---||
|-3--3-1-3--3-1-6\5/6-5-1----6--5--*||
|---------------------3-------------||



Fill B (4:14)
  Bass & Drums Only                               2x
||--------------------------------------------------||
||*------------------------------------------------*||
||*-3--3--6-----3--3--6--------3--3--6--------6-5--*||
||-----------3-----------6-3-6----------3--3--------||



Chorus (4:47) 
||---------------------------------------------------------|
||*--------------------------------------------------------|
||---------------------------------------------------------|
||--5--5-3-5--5-3-8\7/8---3----5--5-3-5--5-3-8\7/8---------|
||*-3--3-1-3--3-1-6\5/6-5-1----3--3-1-3--3-1-6\5/6-5--5-5--|
||----------------------3--------------------------3--3-3--|

                                  8x
|-----------------------------------||
|----------------------------------*||
|-----------------------------------||
|-5--5-3-5--5-3-8\7/8---3----8--7---||
|-3--3-1-3--3-1-6\5/6-5-1----6--5--*||
|---------------------3-------------||



Fill D (6:37) ~22x
||----------------||
||*--------------*||
||----------------||
||----------------||
||*--------------*||
||--6~-6~--8~-----||



Riff D (7:51)                 14x
||-------------------------------||
||*-----------------------------*||
||-------------------------------||
||-------------------------------||
||*-8--8--10-10-8-10-10-8-10-10-*||
||--6--6--8--8--6-8--8--6-8--8---||



Outro (9:14)              2x
||--------------------------||
||*------------------------*||
||--------------------------||
||--------------------------||
||*------------------------*||
||--6~-6~--8~--8~---8~-8~---||



------------------------------------------------------------------------------
                              3. Sunnshine Green
------------------------------------------------------------------------------

Intro (0:05)
  Bass Only
||--------------------------------------------------||
||--------------------------------------------------||
||-------------------7----7--6----3--3--------------||
||-4--4--4--6--6--6---------------------6--5--------||



Riff A (0:26)                                     4x
||--------------------------------------------------||
||*------------------------------------------------*||
||--------------------------------------------------||
||--------------------9----9--8----5--5-------------||
||*-6--6--6--8--8--8--7----7--6----3--3--8--7------*||
||--4--4--4--6--6--6---------------------6--5-------||



Bridge (1:47)
||----------------------------------------------------------------------------||
||----------------------------------------------------------------------------||
||----------------------------------------------------------------------------||
||----------------------------------------------------------------------------||
||-4-6--6-6--4-6--6-6--4-6--6-6-6-7-6-4--4-6--6-6--4-6--6-6--4-6--6-6-6-4-----||
||------------------------------------------------------------------------6-5-||



Riff B (1:56)                                                                 2x
||------------------------------------------------------------------------------||
||*----------------------------------------------------------------------------*||
||------------------------------------------------------------------------------||
||--6-8--8-8--6-8--8-8--6-8--8-8-8-9-8-6--6-8--8-8--6-8--8-8--6-8--8-8-8-6------||
||*-4-6--6-6--4-6--6-6--4-6--6-6-6-7-6-4--4-6--6-6--4-6--6-6--4-6--6-6-6-4-8-7-*||
||-------------------------------------------------------------------------6-5--||



Fill (2:13)   3x
||--------------||
||*------------*||
||--------------||
||--8-6---------||
||*-6-4--8--7--*||
||-------6--5---||



Riff B (2:17)                                                                 2x
||------------------------------------------------------------------------------||
||*----------------------------------------------------------------------------*||
||------------------------------------------------------------------------------||
||--6-8--8-8--6-8--8-8--6-8--8-8-8-9-8-6--6-8--8-8--6-8--8-8--6-8--8-8-8-6------||
||*-4-6--6-6--4-6--6-6--4-6--6-6-6-7-6-4--4-6--6-6--4-6--6-6--4-6--6-6-6-4-8-7-*||
||-------------------------------------------------------------------------6-5--||



Fill A (2:34) 3x
||--------------||
||*------------*||
||--------------||
||--8-6---------||
||*-6-4--8--7--*||
||-------6--5---||



Riff C (2:37)                                  5x
||-----------------------------------------------||
||*---------------------------------------------*||
||-----------------------------------------------||
||-------------------------6--8-----------6------||
||*-8--6--8--13\-----------4--6--4h6p4h6--4--8--*||
||--6--4--6--11\--4h6p4h6--------------------6---||



Fill B (3:06) 16x
||---------------||
||*-------------*||
||---------------||
||---------------||
||*-8--6--8-----*||
||--6--4--6------||



Outro (4:12)
||-------------------------------------------------------------||
||-------------------------------------------------------------||
||-------------------------------------------------------------||
||------------------------6--8-----------6---------------------||
||-8--6--8--13\-----------4--6--4h6p4h6--4--8--8--6--8--13\----||
||-6--4--6--11\--4h6p4h6--------------------6--6--4--6--11\----||



------------------------------------------------------------------------------
                              4. 666lb. Bongsession
------------------------------------------------------------------------------

Intro (0:00)                                                  6x
||--------------------------------------------------------------||
||*------------------------------------------------------------*||
||--------------------------------------------------------------||
||--------------------------------------------------------------||
||*-7----5-7----5-7--5-7--/10--10--7----5-7----5-7--5-7--5--5--*||
||--------------------------------------------------------------||



Riff A (1:42)                                                 4x
||--------------------------------------------------------------||
||*------------------------------------------------------------*||
||--------------------------------------------------------------||
||--9----7-9----7-9--7-9--/12--12--9----7-9----7-9--7-9--7--7---||
||*-7----5-7----5-7--5-7--/10--10--7----5-7----5-7--5-7--5--5--*||
||--------------------------------------------------------------||



Riff B (2:32)  
||------------------------------------------------------|
||*-----------------------------------------------------|
||------------------------------------------------------|
||--9-9-9-9-7-7-9-9-9-9-7-7-9-\7-9-\7/12-12-12-12-12-12-|
||*-7-7-7-7-5-5-7-7-7-7-5-5-7-\5-7-\5/10-10-10-10-10-10-|
||------------------------------------------------------|
            . .         . .    .    .
                                               4x
|------------------------------------------------||
|-----------------------------------------------*||
|------------------------------------------------||
|-9-9-9-9-7-7-9-9-9-9-7-7-9-\7-9--\-7-7-7-7-7-7--||
|-7-7-7-7-5-5-7-7-7-7-5-5-7-\5-7--\-5-5-5-5-5-5-*||
|------------------------------------------------||
          . .         . .    .


Fill (3:34)
||--------------||
||--------------||
||--------------||
||-4------------||
||-2----5--2----||
||------3--0----||



Intro (3:38) 6x
||--------------------------------------------------------------||
||*------------------------------------------------------------*||
||--------------------------------------------------------------||
||--------------------------------------------------------------||
||*-7----5-7----5-7--5-7--/10--10--7----5-7----5-7--5-7--5--5--*||
||--------------------------------------------------------------||



Riff B (4:27) 4x
||------------------------------------------------------|
||*-----------------------------------------------------|
||------------------------------------------------------|
||--9-9-9-9-7-7-9-9-9-9-7-7-9-\7-9-\7/12-12-12-12-12-12-|
||*-7-7-7-7-5-5-7-7-7-7-5-5-7-\5-7-\5/10-10-10-10-10-10-|
||------------------------------------------------------|
            . .         . .    .    .
                                               4x
|------------------------------------------------||
|-----------------------------------------------*||
|------------------------------------------------||
|-9-9-9-9-7-7-9-9-9-9-7-7-9-\7-9--\-7-7-7-7-7-7--||
|-7-7-7-7-5-5-7-7-7-7-5-5-7-\5-7--\-5-5-5-5-5-5-*||
|------------------------------------------------||
          . .         . .    .


Fill (5:27)     4x
||----------------||
||*--------------*||
||----------------||
||--4-------------||
||*-2----5--2----*||
||-------3--0-----||



Riff C (5:46) 8x
||-------------------------------||
||*-----------------------------*||
||-------------------------------||
||-------------------------------||
||*-3------4------5------/7-7-7-*||
||--1--0-0-2--0-0-3--0-0-/5-5-5--||
       . .    . .    . .


Riff D (6:13) 5x
||------------------------------------------------------------||
||*----------------------------------------------------------*||
||------------------------------------------------------------||
||------------------------------------------------------------||
||*-2--2--------------2--2--2-2-2-7--2--2--------2--5--7--7--*||
||--0--0--3-5-5-3-5-5-0--0--0-0-0-5--0--0--5-3-0-0--3--5--5---||
                            . . .              .


Outro (7:06)                                                        3x
||--------------------------------------------------------------------||
||*------------------------------------------------------------------*||
||--------------------------------------------------------------------||
||--------------------------------------------------------------------||
||*-2---2---5-/7-5-/7-2---2---2-2-2-7--2---2---7-5---2---5---7---7---*||
||--0---0---3-/5-3-/5-0---0---0-0-0-5--0---0---5-3-0-0---3---5---5----||
                              . . .                .


------------------------------------------------------------------------------
                              5. Trinity (Gigglebush)
------------------------------------------------------------------------------

Intro (0:07) 
  Bass Only
||-------------------------------------------------------------||
||-------------------------------------------------------------||
||--8-6---6-------8-6---6-------8-6---6------------6-8br-6-----||
||------8----8-6------8----8-6------8----8-6---6-8---------8---||



Riff A (0:14)                                               3x
||-------------------------------------------------------------||
||*-----------------------------------------------------------*||
||-------------------------------------------------------------||
||-------------------------------------------------------------||
||*-8-6---6-------8-6---6-------8-6---6------------6-8br-6----*||
||------8----8-6------8----8-6------8----8-6---6-8---------8---||



Riff B (0:44)                                             2x
||----------------------------------------------------------||
||*--------------------------------------------------------*||
||----------------------------------------------------------||
||--10---8----10-8----8-------------10---8----10-8----------||
||*-8----6----8--6-10-6--10-8/10\8--8----6----8--6-10-8----*||
||-----------------8-----8--6/8-\6-----------------8--6-----||



Riff A (1:00)                                                2x
||-------------------------------------------------------------||
||*-----------------------------------------------------------*||
||-------------------------------------------------------------||
||-------------------------------------------------------------||
||*-8-6---6-------8-6---6-------8-6---6------------6-8br-6----*||
||------8----8-6------8----8-6------8----8-6---6-8---------8---||



Fill A (1:15) 
||-----------||
||-----------||
||-----------||
||-10---8----||
||-8----6----||
||-----------||



Riff A (1:18)                                                2x
||-------------------------------------------------------------||
||*-----------------------------------------------------------*||
||-------------------------------------------------------------||
||-------------------------------------------------------------||
||*-8-6---6-------8-6---6-------8-6---6------------6-8br-6----*||
||------8----8-6------8----8-6------8----8-6---6-8---------8---||



Riff B (1:33)                                             2x
||----------------------------------------------------------||
||*--------------------------------------------------------*||
||----------------------------------------------------------||
||--10---8----10-8----8-------------10---8----10-8----------||
||*-8----6----8--6-10-6--10-8/10\8--8----6----8--6-10-8----*||
||-----------------8-----8--6/8-\6-----------------8--6-----||


                     ______________________   _____________________
Riff C (1:50)       |1,2,3               4x| |4                    |
||------------------|----------------------|||---------------------||
||*-----------------|---------------------*|||---------------------||
||------------------|----------------------|||---------------------||
||------------------|----------------------|||---------------------||
||*-8/10-10-8/10-10-|-8/10-10-4-6-4-------*|||-8/10-10-4-6-4-------||
||--6/8--8--6/8--8--|-6/8--8--------4-6-4--|||-6/8--8--------4-6-4-||
                                                       . . . . . .


Fill B (2:07)
||-------------------------------------||
||-------------------------------------||
||-------------------------------------||
||-------------------------------------||
||-4-6-4-------4-6-4-------4-6-4-------||
||-------4-6-4-------4-6-4-------4-6-4-||
   . . . . . . . . . . . . . . . . . .

                     ______________________   _____________________
Riff C (2:10)       |1,2,3               4x| |4                    |
||------------------|----------------------|||---------------------||
||*-----------------|---------------------*|||---------------------||
||------------------|----------------------|||---------------------||
||------------------|----------------------|||---------------------||
||*-8/10-10-8/10-10-|-8/10-10-4-6-4-------*|||-8/10-10-4-6-4-------||
||--6/8--8--6/8--8--|-6/8--8--------4-6-4--|||-6/8--8--------4-6-4-||
                                                       . . . . . .


Fill B (2:27)
||-------------------------------------||
||-------------------------------------||
||-------------------------------------||
||-------------------------------------||
||-4-6-4-------4-6-4-------4-6-4-------||
||-------4-6-4-------4-6-4-------4-6-4-||
   . . . . . . . . . . . . . . . . . .

                     ______________________   _____________________
Riff C (2:30)       |1,2,3               4x| |4                    |
||------------------|----------------------|||---------------------||
||*-----------------|---------------------*|||---------------------||
||------------------|----------------------|||---------------------||
||------------------|----------------------|||---------------------||
||*-8/10-10-8/10-10-|-8/10-10-4-6-4-------*|||-8/10-10-4-6-4-------||
||--6/8--8--6/8--8--|-6/8--8--------4-6-4--|||-6/8--8--------4-6-4-||
                                                       . . . . . .


Fill B (2:46)                      ~22x
||-------------------------------------||
||-------------------------------------||
||-------------------------------------||
||-------------------------------------||
||-4-6-4-------4-6-4-------4-6-4-------||
||-------4-6-4-------4-6-4-------4-6-4-||
   . . . . . . . . . . . . . . . . . .


Riff D (4:05)                    3x
||---------------------------------||
||*-------------------------------*||
||---------------------------------||
||--------------------------10-8---||
||*-8/10-10-8/10-10-8/10-10-8--6--*||
||--6/8--8--6/8--8--6/8--8---------||



Outro (4:18)
||------------------------------------------------------------------------------||
||------------------------------------------------------------------------------||
||------------------------------------------------------------------------------||
||------------------------------------------------------------------------------||
||-8/10-10-8/10-10-8/10-10-4-6-4-------4-6-4-------4-6-4-------4-6-4-------10---||
||-6/8--8--6/8--8--6/8--8--------4-6-4-------4-6-4-------4-6-4-------4-6-4-8----||
                           . . . . . . . . . . . . . . . . . . . . . . . . 


------------------------------------------------------------------------------
                              6. Gateway
------------------------------------------------------------------------------

Intro (0:06)         4x
||---------------------||
||*-------------------*||
||---------------------||
||---------------------||
||*-3--3--3--6--------*||
||--1--1--1--4---------||



Riff A (0:32)
||--------------------------------------------------------------------|
||*-------------------------------------------------------------------|
||--------------------------------------------------------------3b----|
||-----------------------------3b---------------------------3-6----6--|
||*-3-3-3-6--3-3-6--3-3----3-6----6--3-3-3-6--3-3-6--3-3--6-----------|
||--1-1-1-4--1-1-4--1-1--6-----------1-1-1-4--1-1-4--1-1--------------|

                                  3x
|-----------------------------------||
|----------------------------------*||
|-----------------------------------||
|----------------------6-3----------||
|-3-3-3-6--3-3-6--3-3------6-3-----*||
|-1-1-1-4--1-1-4--1-1-----------6---||



Fill A (1:31)
Bass & Drums Only                             6x
||----------------------------------------------||
||*--------------------------------------------*||
||*------------6--8p6h8----8-6-----------------*||
||--1--4--6--8-----------------8-6----4-1-4-1---||



Riff B (2:30)                                  4x
||-----------------------------------------------||
||*---------------------------------------------*||
||-----------------------------------------------||
||--------------8--10\8/10--108------------------||
||*-3--6--8--10-6--8-\6/8---8-6-108----6-3-6-3--*||
||--1--4--6--8------------------8-6----4-1-4-1---||



Fill A (3:07)
Bass & Drums Only                             6x
||----------------------------------------------||
||*--------------------------------------------*||
||*------------6--8p6h8----8-6-----------------*||
||--1--4--6--8-----------------8-6----4-1-4-1---||



Riff B (4:04)                                  4x
||-----------------------------------------------||
||*---------------------------------------------*||
||-----------------------------------------------||
||--------------8--10\8/10--108------------------||
||*-3--6--8--10-6--8-\6/8---8-6-108----6-3-6-3--*||
||--1--4--6--8------------------8-6----4-1-4-1---||



Riff C (4:40)                                          8x
||-------------------------------------------------------||
||*-----------------------------------------------------*||
||--------------------3b---------------------------------||
||--------3b------3-6----6--6-3--------------------------||
||*---3-6----6--6---------------6-3-----3-3-3-3---/15\--*||
||--6--------------------------------6--1-1-1-1---/13\---||



Fill B (5:39)                              3x
||-------------------------------------------||
||*-----------------------------------------*||
||-------------------------------------------||
||--8--10---8--10---8--10--------------------||
||*-6--8----6--8----6--8----10-8----3--6----*||
||--------------------------8--6----1--4-----||



Outro (6:20)
||---------------------------------------------------|
||*--------------------------------------------------|
||---------------------------------------------------|
||--8-10101010108-10108-10108-10101010108-10108-1010-|
||*-6-8-8-8-8-8-6-8-8-6-8-8-6-8-8-8-8-8-6-8-8-6-8-8--|
||---------------------------------------------------|
 
                                          4x
|-------------------------------------------||
|------------------------------------------*||
|-------------------------------------------||
|-8-10101010108-10108-1010------------------||
|-6-8-8-8-8-8-6-8-8-6-8-8--10-8----3--6----*||
|--------------------------8--6----1--4-----||



------------------------------------------------------------------------------
                              7. Keefmaster
------------------------------------------------------------------------------

Intro (0:05)
||----------------------------------------------------||
||----------------------------------------------------||
||----------------------------------------------------||
||----------------------------------------------------||
||-4--6-6----\4--6-6--6~~--4--6-6--6b--r-4--6-6--6~~--||
||-2--4-4----\2--4-4--4~~--2--4-4--4b--r-2--4-4--4~~--||



Riff A (0:20)                                        4x
||-----------------------------------------------------||
||*---------------------------------------------------*||
||-----------------------------------------------------||
||-----------------------------------------------------||
||*-4--6-6--6--6--4--6-6--4--6-6--6--6--4--6-6--9--8--*||
||--2--4-4--4--4--2--4-4--2--4-4--4--4--2--4-4--7--6---||



Intro (0:48)
||----------------------------------------------------||
||----------------------------------------------------||
||----------------------------------------------------||
||----------------------------------------------------||
||-4--6-6---\-4--6-6--6~~--4--6-6--6b--r-4--6-6--6~~--||
||-2--4-4---\-2--4-4--4~~--2--4-4--4b--r-2--4-4--4~~--||



Riff A (1:04)                                        4x
||-----------------------------------------------------||
||*---------------------------------------------------*||
||-----------------------------------------------------||
||-----------------------------------------------------||
||*-4--6-6--6--6--4--6-6--4--6-6--6--6--4--6-6--9--8--*||
||--2--4-4--4--4--2--4-4--2--4-4--4--4--2--4-4--7--6---||



Intro (1:31)
||----------------------------------------------------||
||----------------------------------------------------||
||----------------------------------------------------||
||----------------------------------------------------||
||-4--6-6---\-4--6-6--6~~--4--6-6--6b--r-4--6-6--6~~--||
||-2--4-4---\-2--4-4--4~~--2--4-4--4b--r-2--4-4--4~~--||



Fill A (1:47)                4x
||-----------------------------||
||*---------------------------*||
||-----------------------------||
||-----------------------------||
||*-4--6-6--9---8---4--6-6----*||
||--2--4-4--7---6---2--4-4-----||



Riff B (2:03)                           4x
||----------------------------------------||
||*--------------------------------------*||
||----------------------------------------||
||----------------------------------------||
||*-4--6-6--9---8---4--6-6--4-4--6-6--6--*||
||--2--4-4--7---6---2--4-4--2-2--4-4--4---||



Fill B (2:18)     3x
||------------------||
||*----------------*||
||------------------||
||------------------||
||*-4--6-6--9--8---*||
||--2--4-4--7--6----||



Riff C (2:23)
||-----------------------------------------|
||-----------------------------------------|
||-----------------------------------------|
||-----------------------------------------|
||-4-4--6-6--4-4--6-6--4-4--6-6--9-9--8-8--|
||-2-2--4-4--2-2--4-4--2-2--4-4--7-7--6-6--|
   . .  . .  . .  . .  . .  . .  . .  . .

|---------------------------------------------------|
|*-------------------------------------------------*|
|---------------------------------------------------|
|---------------------------------------------------|
|*-4-4-6-6-6-6-4-4-6-6-6-6-4-4-6-6-6-6-9-9-9-8-8-8-*|
|--2-2-4-4-4-4-2-2-4-4-4-4-2-2-4-4-4-4-7-7-7-6-6-6--|
   . . . . . . . . . . . . . . . . . . . . . . . .

|-----------------------------------------||
|-----------------------------------------||
|-----------------------------------------||
|-----------------------------------------||
|-4-4--6-6--4-4--6-6--4-4--6-6--9-9--8-8--||
|-2-2--4-4--2-2--4-4--2-2--4-4--7-7--6-6--||
  . .  . .  . .  . .  . .  . .  . .  . .


Riff D (2:40)    3x          2x                3x
||-----------------|-----------|-----------------||
||*---------------*|*---------*|*---------------*||
||-----------------|-----------|-----------------||
||-----------------|-----------|-----------------||
||*-4--6-6--9--8--*|*-4--6-6--*|*-4--6-6--9--8--*||
||--2--4-4--7--6---|--2--4-4---|--2--4-4--7--6---||



Chorus (2:54)                                         8x
||------------------------------------------------------||
||*----------------------------------------------------*||
||------------------------------------------------------||
||------------------------------------------------------||
||*-4--6-6--6--4--6-6--6--4--6-6--6--6--2-4-5-4-2------*||
||--2--4-4--4--2--4-4--4--2--4-4--4--4------------4-2---||



Intro Slower (3:56)
||----------------------------------------------------||
||----------------------------------------------------||
||----------------------------------------------------||
||----------------------------------------------------||
||-4--6-6----\4--6-6--6~~--4--6-6--6b--r-4--6-6--6~~--||
||-2--4-4----\2--4-4--4~~--2--4-4--4b--r-2--4-4--4~~--||



Outro (4:15)
||------------------||
||------------------||
||------------------||
||------------------||
||-4-/-6-6--6~------||
||-2-/-4-4--4~------||



------------------------------------------------------------------------------
                              8. Hashdealer
------------------------------------------------------------------------------

Riff A (0:20)                                  3x
||-----------------------------------------------||
||*---------------------------------------------*||
||-----------------------------------------------||
||-----4--7--------------------------------------||
||*-2--2--5--7--5--7--5--2----5--7--22----7--8--*||
||--0--------5--6--5--3--0----3--5--00----5--6---||
                                    .


Riff B (1:05)                       8x
||-----------------------------------||
||*---------------------------------*||
||-----------------------------------||
||-----4-7---------------------------||
||*-2--2-5--7-8--7-5-2--5-7-2--7-8--*||
||--0-------5-6--5-3-0--3-5-0--5-6---||



Fill A (1:38)
  Guitar
||-------------------------------------------------------------||
||-------------------------------------------------------------||
||-----------------REST----------------------------------------||
||-------------------------------------------------------------||
||---------------------------------------8--8-8-8-8-7--7-7-7-7-||
||---------------------------------------6--6-6-6-6-5--5-5-5-5-||
|                                                               |
| Bass                                                          |
||-------------------------------------------------------------||
||-------------------------------------------------------------||
||-------------------------------------------------------------||
||-0--0-0-5--3--0--0-5-3-5--0--0-0-5--3--6--6-6-6-6-5--5-5-5-5-||



Riff C (1:46)                                                  5x
||---------------------------------------------------------------||
||*-------------------------------------------------------------*||
||---------------------------------------------------------------||
||---------------------------------------------------------------||
||*-2--2-2-7--5--2--2-7-5-7--2--2-2-7--5--4--4-4-4-4-7--7-7-7-7-*||
||--0--0-0-5--3--0--0-5-3-5--0--0-0-5--3--6--6-6-6-6-5--5-5-5-5--||



Riff D (2:24)               12x
||-----------------------------||
||*---------------------------*||
||-----------------------------||
||--5--------------------------||
||*-3--6--5-2--5--7--------7--*||
||-----4--3-0--3--5--3h5p3-5---||
            .


Riff E (3:07)              6x
||---------------------------||
||*-------------------------*||
||---------------------------||
||--5------------------------||
||*-3----7----5-5-6--5-5-6--*||
||-------5----3-3-4--3-3-4---||



Outro (4:13)
||----------------------||
||----------------------||
||----------------------||
||--5~------------------||
||--3~-----7------------||
||---------5------------||

            
            
Suggest correction
Creating personal tab
Creating personal tab
You can edit any tab online and save it as your Personal.

You can edit, replace or remove any tab part or add personal notes – all changes will be seen only by you.

Personal tabs can be accessed anytime from any device, even offline.
Learn more »
Give kudos to tab author, rate the tab!
1 2 3 4 5
comments
print report bad tab
guest
You may want to rate the tab now too:
select rating
Wanna post a correction for this tab? Suggest correction