Oops, an error
Loading. Please wait.

Elevator Man bass

40 views 1 this week
no commentswrite comment
1 2 3 4 5
3 more votes to show rating
add to favorites
×
Save as Personal and add changes to this tab that will be seen only by you. Learn more ›
×
You can save this tab as Personal to edit and correct it or add notes. All changes will be seen only by you. Learn more »
launch autoscroll
font size
0
reset
guitar tuner
edit
Autoscroll
slow
fast
+/-
esc
set tempo
stop
Author
Difficulty
Tabbed by: 6METAL6BASSIST6
E-mail: petergriffinav@gmail.com

Tuning: EADG

0:20

G|----------------------------------------------------------------|
D|----------------------------------------------------------------| x2
A|5-----------5---5---------------5-----------5---5---------------|
E|----------------------------------------------------------------|

0:28

G|----------------------------------------------------------------|
D|------------4---5-----------5---------------4---5---------------|
A|5-------------------------------5-------------------------------|
E|----------------------------------------------------------------|

G|----------------------------------------------------------------|
D|------------4---5-----------5---------------4---5---5-------5---|
A|5-------------------------------5-------------------------------|
E|----------------------------------------------------------------|

G|----------------------------------------------------------------|
D|--------2---------------4-------5-----------4---2---------------|
A|2---------------------------------------------------------------|
E|----------------------------------------------------------------|

G|----------------------------------------------------------------|
D|----------------------------------------------------------------|
A|----------------------------------------------------------------|
E|2-----------2-------------------2-----------2-------------------|

0:44

G|----------------------------------------------------------------|
D|------------4---5-----------5---------------4---5---5-------5---| x2
A|5-------------------------------5-------------------------------|
E|----------------------------------------------------------------|

G|----------------------------------------------------------------|
D|--------2---------------4-------5-----------4---2---------------|
A|2---------------------------------------------------------------|
E|----------------------------------------------------------------|

G|----------------------------------------------------------------|
D|----------------------------------------------------------------|
A|----------------------------------------------------------------|
E|2-----------2-------------------2-----------2-------------------|

1:00

G|------------------------------------7-----------------------7---|
D|5-----------5---5---5-------5---5-----------8-------5-----------|
A|----------------------------------------------------------------|
E|----------------------------------------------------------------|

G|----------------------------------------------------------------|
D|--------------------------------------------------------2---4---|
A|------------5---5---5-------5-------2-------3-------5-----------|
E|--------------------------------5-------------------------------|

G|------------------------------------7---------------------------|
D|5-----------5---5---5-------5---5-----------8-------5-----------|
A|----------------------------------------------------------------|
E|----------------------------------------------------------------|

G|----------------------------------------------------------------|
D|----------------------------------------------------------------|
A|----------------------------2-----------2-----------------------|
E|2-----------------------2-----------------------2-----------2---|

G|----------------------------------------------------------------|
D|2-------4-------5-----------------------------------------------|
A|------------------------2-------3-------------------3---3---3---|
E|----------------------------------------------------------------|

G|--------------------------------|
D|--------------------------------|
A|--------------------------------|
E|5-------5---5---5---5---5---5---|

1:21

G|----------------------------7---------/-7---------4-----4---7---|
D|------------4---5---5-------------------------------5-----------| x2
A|5-------------------------------5-------------------------------|
E|----------------------------------------------------------------|

G|----------------------------------------------------------------|
D|--------2---------------4-------5-----------4---2---------------|
A|2---------------------------------------------------------------|
E|----------------------------------------------------------------|

G|----------------------------------------------------------------|
D|4-------------------------------4-------------------------------|
A|----------------------------------------------------------------|
E|------------2---------------2---------------2-------------------|

1:37

G|----------------------------------------------------------------|
D|----------------------------------------------------------------|
A|2-------------------------------------------------------2-------|
E|----------------------------------------------------------------|

G|----------------------------------------------------------------|
D|----------------------------------------------------------------|
A|----------------------------------------------------------------|
E|5-------------------------------5---5-------4-------------------|

G|----------------------------------------------------------------|
D|----------------------------------------------------------------|
A|----------------------------------------------------------------|
E|3---3-------3-------3-------3---3---3-------3-------3-------3---|

G|----------------------------------------------------------------|
D|------------4-----------4-----------4-----------4-----------4---|
A|----------------------------------------------------------------|
E|2---------------------------------------------------------------|

G|--------------------------------|
D|--------4-----------4-------2---|
A|--------------------------------|
E|--------------------------------|

1:52

G|----------------------------7---------/-7---------4-----4---7---|
D|------------4---5-----------------------------------5-----------|
A|5-------------------------------5---5---------------------------|
E|----------------------------------------------------------------|

G|--------------------------------------/-7-----7---4-----4---7---|
D|------------4---5-----------5-----------------------5-----------|
A|5-------------------------------5-------------------------------|
E|----------------------------------------------------------------|

G|----------------------------------------------------------------|
D|--------2---------------4-------5-----------4---2---------------|
A|2---------------------------------------------------------------|
E|----------------------------------------------------------------|

G|----------------------------------------------------------------|
D|----------------------------------------------------------------|
A|----------------------------------------------------------------|
E|2-------------------------------2-----------2-------------------|

2:08

G|----------------------------7-----------------------------------|
D|----------------5---------------------------4---5---------------|
A|5-------------------------------5-------------------------------|
E|----------------------------------------------------------------|

G|----------------------------------------------------------------|
D|------------4---5-----------5---------------4---5---5-------5---|
A|5-------------------------------5-------------------------------|
E|----------------------------------------------------------------|

G|----------------------------------------------------------------|
D|--------2---------------4-------5-----------4---2---------------|
A|2---------------------------------------------------------------|
E|----------------------------------------------------------------|

G|----------------------------------------------------------------|
D|----------------------------------------------------------------|
A|----------------------------------------------------------------|
E|2-------------------------------2-------------------------------|

2:22

G|----------------------------------------------------------------|
D|------/-12--------9-----9---12--------------4---5---5-----------|
A|5-------------------10--------------5---------------------------|
E|----------------------------------------------------------------|

G|----------------------------------------------------------------|
D|------/-12--------9-----9---12--------------4---5---5-------5---|
A|5---5---------------10--------------5---------------------------|
E|----------------------------------------------------------------|

G|----------------------------------------------------------------|
D|------------2-----------4-------5---------------2---------------|
A|----------------------------------------------------------------|
E|----------------------------------------------------------------|

G|----------------------------------------------------------------|
D|----------------------------------------------------------------|
A|----------------------------------------------------------------|
E|2-----------2-------------------2-------------------------------|

2:37

G|----------------------------------------7---------------4---7---|
D|------/-12--------9-----9---12----------------------5-----------|
A|5-------------------10----------5-------------------------------|
E|----------------------------------------------------------------|

G|----------------------------------------7---------------4---7---|
D|------/-12------12-9----9---12----------------------5-----------|
A|5-------------------10----------5---5---------------------------|
E|----------------------------------------------------------------|

G|----------------------------------------------------|
D|----------------2-------4-------5-----------4---2---| fades out here.
A|----------------------------------------------------|
E|----------------------------------------------------|

            
            
Suggest correction
Creating personal tab
Creating personal tab
You can edit any tab online and save it as your Personal.

You can edit, replace or remove any tab part or add personal notes – all changes will be seen only by you.

Personal tabs can be accessed anytime from any device, even offline.
Learn more »
Give kudos to tab author, rate the tab!
1 2 3 4 5
comments
print report bad tab
guest
You may want to rate the tab now too:
select rating
Wanna post a correction for this tab? Suggest correction