Oops, an error
Loading. Please wait.

Light Of Love bass

13 views 1 this week
no commentswrite comment
1 2 3 4 5
3 more votes to show rating
add to favorites
×
Save as Personal and add changes to this tab that will be seen only by you. Learn more ›
×
You can save this tab as Personal to edit and correct it or add notes. All changes will be seen only by you. Learn more »
launch autoscroll
font size
0
reset
guitar tuner
edit
Autoscroll
slow
fast
+/-
esc
set tempo
stop
Author
Difficulty
Tabbed by: 6METAL6BASSIST6
E-mail: petergriffinav@gmail.com

Tuning: EADG

G|----------------------------------------------------------------|
D|----------------------------------------------------------------|
A|4-------4-------2---2-------1-----------1-----1-1---1-----------|
E|----------------------------------------------------------------|

G|----------------------------------------------------------------|
D|----------------------------------------------------------------|
A|4-------4-----4-2---2-------1-----------1-----1-1---1---1-------|
E|----------------------------------------------------------------|

0:11

G|----------------------------------------------------------------|
D|----------------------------------------------------------------|
A|4-------4-------2---2-------1-----------1-----1-1---1-------1---|
E|----------------------------------------------------------------|

G|----------------------------------------------------------------|
D|----------------------------------------------6-6---6-----------|
A|0-------0-----0-0---0-------------------------------------6-----|
E|--------------------------------4-------4-------------------4---|

G|----------------------------------------------------------------|
D|----------------------------------------------------------------|
A|4-------4-----4-2---2-------1-----------1-----1-1---1-----------|
E|----------------------------------------------------------------|

G|----------------------------------------------------------------|
D|----------------------------------------6-------6-----6---------|
A|0-------0-----0-0---0-------0---------6-------6-----6-----6-----|
E|--------------------------------4---------------------------4---|

0:37

G|----------------------------------------------------------------|
D|----------------------------------------------------------------|
A|----------------------------------------------------------------|
E|5-------5-------5-------5-------5-------5-------5-------5-------|

G|------------------------------------------------6-----6---------|
D|----------------------------------------------6-----6-----6---6-|
A|--------------------------------4-------4-------------------4---|
E|0-------0-------4-------4---------------------------------------|

G|----------------------------------------------------------------|
D|4-------4-----4-----------------4-------4-----------------------|
A|----------------------------4-----------------4-------------4---|
E|----------------2---2---------------------------2---2-----------|

G|--------------------------------2-------------------------------|
D|----------------------------2-------2---------------------------|
A|--------------------------------------------3-------------------|
E|5-----------5---5---5-------------------------------5-----------|

0:59

G|----------------------------------------------------------------|
D|2-------2-----2-1---1-------1-------------------------------2---|
A|--------------------------------4-------4-----4-2---2-2---4---4-|
E|----------------------------------------------------------------|

G|----------------------------------------------------------------|
D|2-------2-----2-1---1-------------------------------------------|
A|--------------------------------4-------4-----4-4---4-----4-4---|
E|----------------------------------------------------------------|

G|----------------------------------------------------------------|
D|2-------2-----2-1---1-------1-----------------------------------|
A|--------------------------------4-------4-----4-2---2-------2---|
E|----------------------------------------------------------------|

G|----------------------------------------------------------------|
D|--------------------------------------------7-------------------|
A|----------------------------------------------------7-----------|
E|5-------5-----5-5---5-------5---5---------------------------5---|

1:23

G|----------------------------------------------------------------|
D|----------------------------------------------------------------|
A|4-----------4---2-----------2---1-----------1---1---1-----------|
E|----------------------------------------------------------------|

G|----------------------------------------------------------------|
D|------------------------------------------------6-----6---------|
A|0-------0-----0-0---0-------0-----------------4-----6-----6-----|
E|--------------------------------4-------4-------------------4---|

G|----------------------------------------------------------------|
D|----------------------------------------------------------------|
A|4-------4-----4-2---2-------1-----------1-----1-1---1-----------|
E|----------------------------------------------------------------|

G|----------------------------------------------------------------|
D|----------------------------------------6-----6-----6-----------|
A|0-------0-----0-0---0-------0-------4/6-----6-----6-----6-------|
E|--------------------------------4---------------------------4---|

1:46

G|----------------------------------------------------------------|
D|----------------------------------------------------------------|
A|----------------------------------------------------------------|
E|5-------5-------5-------5-------5-------5-------5-------5-------|

G|------------------------------------------------6-----6---------|
D|----------------------------------------------6-----6-----6-----|
A|--------------------------------4-------4-------------------4---|
E|0-------0-------4-------4---------------------------------------|

G|----------------------------------------------------------------|
D|------------------------------------------------4---4-----------|
A|--------------4-------------4-----------------4-------------4---|
E|2-------2-------2---2-----------2-------2-----------------------|

G|----------------------------------------------------------------|
D|----------------------------2-----------------------2-----------|
A|--------------7-------------------------------------------------|
E|5-------5-------5---5---------------5-------5---------------5---|

2:11

G|----------------------------------------------------------------|
D|2-------2-----2-1---1-------1-------------------------------2---|
A|--------------------------------4-------4-----4-2-----2---4---4-|
E|----------------------------------------------------------------|

G|----------------------------------------------------------------|
D|2-------2-----2-1---1-------1-----------------------------------|
A|--------------------------------4-------------4-4---4-------2---|
E|----------------------------------------------------------------|

G|----------------------------------------------------------------|
D|2-------2-----2-1---1-------1-----------------------------------|
A|--------------------------------4-------4-----4-2---2-------2---|
E|----------------------------------------------------------------|

G|----------------------------------------------------------------|
D|--------------------------------------------2-------------------|
A|----------------------------7-----------------------3-----------|
E|5-------5-----5-5---5-----------5---------------------------5---|

G|----------------------------------------------------------------|
D|----------------------------------------------------------------|
A|4-----------4---2---2-------1-----------1-----1-1---1-------1---|
E|----------------------------------------------------------------|

2:39

G|----------------------------------------------------------------|
D|----------------------------------------------------------------|
A|0---------------------------7-----------------7-----------------|
E|--------5-------5---5-----------5-------5-------5---5-------5---|

G|------------------------------------------------------------6---|
D|----------------------------------------------------6-----------|
A|7-------7-----7-----------------4-----4-4---7-------------------|
E|----------------4---4-------4-----------------------------------|

G|----------------------------------------------------------------|
D|4-------4-----4-4---4-----------------------------------4-------|
A|----------------------------4-----------------4-----------------|
E|--------------------------------2-------2-------2---2-------2---|

G|--------------------------------2-------------------------------|
D|----------------------------2-------2---------------------------|
A|--------------------------------------------3-------------------|
E|5-------5-------5---5-------------------------------5-----------|

3:02

G|----------------------------------------------------------------|
D|2-------2-----2-1---1-------1-------------------------------2---|
A|--------------------------------4-------4-----4-2---2-2---4---4-|
E|----------------------------------------------------------------|

G|----------------------------------------------------------------|
D|2-------2-----2-1---1-------1-----------------------------------|
A|--------------------------------4-------4-----4-4---4-------2---|
E|----------------------------------------------------------------|

G|----------------------------------------------------------------|
D|2-------2-----2-1---1-------1-----------------------------------|
A|--------------------------------4-------4-----4-2---2-------2---|
E|----------------------------------------------------------------|

G|--------------------------------2-------------------------------|
D|----------------------------2-------2---------------------------|
A|--------------------------------------------3-------------------|
E|5-------5-----5-5---5-------------------------------5-----------|

3:26

G|----------------------------------------------------------------|
D|2-------2-----2-1---1-------1-------------------------------2---|
A|--------------------------------4-------4-----4-2---2-2---4---4-|
E|----------------------------------------------------------------|

G|------------------------------------------------6-----6---------|
D|2-------2-----2-1---1-------------------------6-----6-----6---6-|
A|--------------------------------4-----4-4-------------------4---|
E|----------------------------------------------------------------|

G|--------------4-------------------------------------------------|
D|2-------2-------1---1-------1-----------------------------------|
A|--------------------------------4-------4-----4-2---2-----2-2---|
E|----------------------------------------------------------------|

G|--------------------------------2---------------|
D|------------------------------------2-----------| fades out here.
A|--------------7-----------------------------3---|
E|5-------5-------5---5-------5-------------------|

            
            
Suggest correction
Creating personal tab
Creating personal tab
You can edit any tab online and save it as your Personal.

You can edit, replace or remove any tab part or add personal notes – all changes will be seen only by you.

Personal tabs can be accessed anytime from any device, even offline.
Learn more »
Give kudos to tab author, rate the tab!
1 2 3 4 5
comments
print report bad tab
guest
You may want to rate the tab now too:
select rating
Wanna post a correction for this tab? Suggest correction