Oops, an error
Loading. Please wait.

Rainy Windows bass

28 views 1 this week
no commentswrite comment
1 2 3 4 5
3 more votes to show rating
add to favorites
×
Save as Personal and add changes to this tab that will be seen only by you. Learn more ›
×
You can save this tab as Personal to edit and correct it or add notes. All changes will be seen only by you. Learn more »
launch autoscroll
font size
0
reset
guitar tuner
edit
Autoscroll
slow
fast
+/-
esc
set tempo
stop
Author
Difficulty
Tabbed by: 6METAL6BASSIST6
E-mail: petergriffinav@gmail.com

Tuning: EADG

G|----------------------------------------------------------------|
D|5---------------------------5---5-----------------------------/-|
A|----------------------------------------------------------------|
E|----------------------------------------------------------------|

G|----------------------------------------------------------------|
D|7---------------------------7---7-------------------------------|
A|----------------------------------------------------------------|
E|----------------------------------------------------------------|

G|----------------------------------------------------------------|
D|5---------------------------5---5-------------------------------|
A|--------------------------------------------------------5-------|
E|----------------------------------------------------------------|

0:13

G|----------------------------------------------------------------|
D|5---------------------------5---7---------------------------7---|
A|----------------------------------------------------------------|
E|----------------------------------------------------------------|

G|----------------------------------------------------------------|
D|7-------------------------------5-----------5---5---------------|
A|----------------------------------------------------------------|
E|----------------------------------------------------------------|

G|----------------------------------------------------------------|
D|5-------------------------------7-----------7---7---------------|
A|----------------------------------------------------------------|
E|----------------------------------------------------------------|

G|----------------------------------------------------------------|
D|7-------------------------------5-----------5---5---------------|
A|----------------------------------------------------------------|
E|----------------------------------------------------------------|

G|--------------------------------|
D|5-----------5---5---------------|
A|--------------------------------|
E|--------------------------------|

0:31

G|----------------------------------------------------------------|
D|7-----------7---7---------------7-----------7---7---------------|
A|----------------------------------------------------------------|
E|----------------------------------------------------------------|

G|----------------------------------------------------------------|
D|5-----------5---5---------------7---------------5---------------|
A|----------------------------------------------------------------|
E|----------------------------------------------------------------|

G|------------------------------------------------|
D|5---------------5---------------5---------------|
A|------------------------------------------------|
E|------------------------------------------------|

G|----------------------------------------------------------------|
D|5-----------5---5---------------7-----------7---7---------------|
A|----------------------------------------------------------------|
E|----------------------------------------------------------------|

G|----------------------------------------------------------------|
D|7-----------7---7-----------------------------------------------|
A|--------------------------------5-----------5---5---------------|
E|----------------------------------------------------------------|

G|----------------------------------------------------------------|
D|----------------------------------------------------------------|
A|5-----------5---5---------------5-----------5---5---------------|
E|----------------------------------------------------------------|

0:56

G|----------------------------------------------------------------|
D|5-----------5---5---------------7---------------7---------------|
A|----------------------------------------------------------------|
E|----------------------------------------------------------------|

G|----------------------------------------------------------------|
D|7-----------7---7---------------5-----------5---5---------------|
A|----------------------------------------------------------------|
E|----------------------------------------------------------------|

G|----------------------------------------------------------------|
D|5-----------5---5---------------7-----------7---7---------------|
A|----------------------------------------------------------------|
E|----------------------------------------------------------------|

G|----------------------------------------------------------------|
D|7-----------7---7---------------5-----------5---5---------------|
A|----------------------------------------------------------------|
E|----------------------------------------------------------------|

G|--------------------------------|
D|5-----------5---5---------------|
A|--------------------------------|
E|--------------------------------|

1:13

G|----------------------------------------------------------------|
D|7-----------7---7---------------7-----------7---7---------------|
A|----------------------------------------------------------------|
E|----------------------------------------------------------------|

G|----------------------------------------------------------------|
D|5-----------5---5---------------7---------------5---------------|
A|------------------------------------------------------------5---|
E|----------------------------------------------------------------|

G|------------------------------------------------|
D|5-----------5---5---------------5---------------|
A|------------------------------------------------|
E|------------------------------------------------|

G|----------------------------------------------------------------|
D|5-----------5---5-----------9---7-----------7---7---------------|
A|----------------------------------------------------------------|
E|----------------------------------------------------------------|

G|----------------------------------------------------------------|
D|7-----------7---7---------------------------------------7-------|
A|--------------------------------5-----------5-------------------|
E|----------------------------------------------------------------|

G|7-------------------------------7-------------------------------|
D|------------7-------------------------------7-------------------|
A|------------------------5-------------------------------5-------|
E|----------------------------------------------------------------|

1:38

G|----------------------------------------------------------------|.
D|5-----------5---5---------------7-----------7---7---------------|.
A|----------------------------------------------------------------|.
E|----------------------------------------------------------------|.
                                                                   . x2
G|----------------------------------------------------------------|.
D|7-----------7---7---------------5-----------5---5---------------|.
A|----------------------------------------------------------------|.
E|----------------------------------------------------------------|.

G|--------------------------------|
D|5-----------5---5---------------|
A|--------------------------------|
E|--------------------------------|

1:57

G|----------------------------------------------------------------|
D|7-----------7---7---------------7-----------7---7---------------|
A|----------------------------------------------------------------|
E|----------------------------------------------------------------|

G|----------------------------------------------------------------|
D|5-----------5---5---------------7---------------5---------------|
A|----------------------------------------------------------------|
E|----------------------------------------------------------------|

G|------------------------------------------------|
D|5-----------5---5---------------5---------------|
A|--------------------------------------------5---|
E|------------------------------------------------|

G|----------------------------------------------------------------|
D|5-----------5---5-----------9---7-----------7---7---------------|
A|----------------------------------------------------------------|
E|----------------------------------------------------------------|

G|----------------------------------------------------------------|
D|7-----------7---7-----------------------------------------------|
A|--------------------------------5-----------5---5---------------|
E|----------------------------------------------------------------|

G|----------------------------------------------------------------|
D|----------------------------------------------------------------|
A|5-----------5---5---------------5-----------5---5-------5-------|
E|----------------------------------------------------------------|

2:20

G|----------------------------------------------------------------|
D|----------------------------------------------------------------|
A|----------------------------7---7-----------7---7---------------|
E|0-----------0---0---------------0-------------------------------|

G|----------------------------------------------------------------|
D|----------------------------------------------------------------|
A|------------7---7---------------------------7---7-----------7---|
E|0-------------------------------0-------------------------------|

G|----------------------------------------------------------------|
D|----------------------------------------------------------------|
A|----------/-7---7-----------7-\-----------/-7---7---------------|
E|0-------------------------------0-------------------------------|

G|----------------------------------------------------|
D|----------------------------------------------------| fades out here.
A|----------/-7---7-----------7-------------/-7---7---|
E|0-------------------------------0-------------------|

            
            
Suggest correction
Creating personal tab
Creating personal tab
You can edit any tab online and save it as your Personal.

You can edit, replace or remove any tab part or add personal notes – all changes will be seen only by you.

Personal tabs can be accessed anytime from any device, even offline.
Learn more »
Give kudos to tab author, rate the tab!
1 2 3 4 5
comments
print report bad tab
guest
You may want to rate the tab now too:
select rating
Wanna post a correction for this tab? Suggest correction