Oops, an error
Loading. Please wait.

The Way tab

2,270 views 24 this week
1 commentread comment
1 2 3 4 5
x 5
add to favorites
×
Save as Personal and add changes to this tab that will be seen only by you. Learn more ›
×
You can save this tab as Personal to edit and correct it or add notes. All changes will be seen only by you. Learn more »
launch autoscroll
font size
0
reset
how to read this tab
guitar tuner
edit
Autoscroll
slow
fast
+/-
esc
set tempo
stop
Author
Difficulty
By: Brent Johannes

This is it for the verses as far as I can tell and the parts in-between verses are 
similar to the verse but maybe in a different
order or maybe with a couple different notes, it is hard to tell,
but just listen and as long as you're close it doesn't matter.
Its good to just do it your own way sometimes if you can't tell,
to give a little bit of your own touch.

Standard tuning

Verse
e---------------------------------------------------------|
B-----1--1--1-----1--1--1-----3--3--3-----1--1--1---------|
G-----0--0--0-----0--0--0-----0--0--0-----1--1--1---------|
D--------------2-----------0------------------------------|
A--3------------------------------------3-----------------|
E---------------------------------------------------------|

Winter comes and snow
I can't marry you, you know
Without you the winter grows
I can't marry you, you know

Love me the way i love you
Love me the way i love you

Take a year in your hands
You can find another man
Let your unloved parts get loved
I will be your man

Love me the way i love you
Love me the way i love you

Places you should be afraid
Into the river we will wade

Love me the way i love you
Love me the way i love you

            
            
Suggest correction
Creating personal tab
Creating personal tab
You can edit any tab online and save it as your Personal.

You can edit, replace or remove any tab part or add personal notes – all changes will be seen only by you.

Personal tabs can be accessed anytime from any device, even offline.
Learn more »
comments
print report bad tab
1 comment total.
0 reply
bjohannes 31 Oct 06, 2013 09:55 PM


Verse
e-----------------------------------------1--1--1---------|
B-----1--1--1-----1--1--1-----3--3--3-----1--1--1---------|
G-----0--0--0-----0--0--0-----0--0--0---------------------|
D--------------2-----------0------------------------------|
A--3------------------------------------3-----------------|
E---------------------------------------------------------|

guest
You may want to rate the tab now too:
select rating
Wanna post a correction for this tab? Suggest correction