Oops, an error
Loading. Please wait.

Julie chords

127 views 6 this week
no commentswrite comment
1 2 3 4 5
3 more votes to show rating
add to favorites
×
Save as Personal and add changes to this tab that will be seen only by you. Learn more ›
×
You can save this tab as Personal to edit and correct it or add notes. All changes will be seen only by you. Learn more »
launch autoscroll
font size
0
reset
transpose
0
reset
display chords
guitar tuner
edit
Autoscroll
slow
fast
+/-
esc
set tempo
stop
Strumming
There is no strumming pattern for this song yet. and get +5 IQ
[Intro]
         G                    C          G         D
e---------------------------------------------------------
B---------------------------------------------------------
G--0-0-4-7---9-7-5-4---7-7-7-5-4-2-0--7-7-7-7-5-4-2-0-2---
D---------------------------------------------------------
         G                    C          G          D
e----------------------------------------------------------------
B----------------------------------------------------------------
G--0-0-4-7---9-7-5-4---7-7-7-5-4-2-0--7-7-7-7-5-4-2-0-2-----------
D-------------------------------------------------------0-0-2-0---


[Verse}
G
She is a nice, blond chick in high heels shoes
G
She is a lovely girl, she can pick and choose
D                                   G
And she goes with a different bloke every saturday night
G
Her rich dad bought her a sporty car
G
She works part time in a West End bar
D                                  G
And she won't stay too long by your side

[Pre Chorus]
C                  G
I'll only tell you once
C                        G
You don't wanna take your chance
C
You don't wanna see how hard it can be
G
Where she steals your money an soul

[Chorus]
            G
(I know the) truth I'll tell you straight
            C
(Don't even) think about her
            G                 D
(Don't even) think about her, mate
            G
(I know the) truth I'll tell you straight
            C
(Don't even) think about her
            G                 D
(Don't even) think about her, mate

[Repeat Intro]
         G                    C          G         D
e---------------------------------------------------------
B---------------------------------------------------------
G--0-0-4-7---9-7-5-4---7-7-7-5-4-2-0--7-7-7-7-5-4-2-0-2---
D---------------------------------------------------------
         G                    C          G          D
e----------------------------------------------------------------
B----------------------------------------------------------------
G--0-0-4-7---9-7-5-4---7-7-7-5-4-2-0--7-7-7-7-5-4-2-0-2-----------
D-------------------------------------------------------0-0-2-0---

G
She ain't got many friends but she smells nice
G
She is one of them- don't ask her twice
D                                 G
The girl knows many tricks to get what she wants
G
And all the boys don't realise
G
If they trust her they'll pay the price
D                               G
When she fades away like she did before

[Pre Chorus]
C                  G
I'll only tell you once
C                        G
You don't wanna take your chance
C
You don't wanna see how hard it can be
G
Where she steals your money an soul

[Chorus]
            G
(I know the) truth I'll tell you straight
            C
(Don't even) think about her
            G                 D
(Don't even) think about her, mate
            G
(I know the) truth I'll tell you straight
            C
(Don't even) think about her
            G                 D
(Don't even) think about her, mate

C                          G
She drinks expensive wine, she smokes posh cigarettes
C                          D
She won't refuse a line, but only if you're buying
C                            G
You say you'll take a risk, you say you'll be fine
C                               D
She'll steal your money and soul, it's just a matter of time. 

[Solo over chorus & Pre Chorus chords]

e-----------------------------------------------------------
B-----------------------------------------------------------
G---0-0-4-7--9-7-9-12--12-12-11-9-7-4--12-12-11-9-7-4-2-----
D-----------------------------------------------------------

e-------------------------------------------------------------------
B-----------------------20---------------------20-20-19-17----------
G---12-12-12h-14h-16-19----12-12-12h-14h-16-19-------------19-16----
D-------------------------------------------------------------------

e-----------------------------------------------------------------------------------
B---20-20-19-17---------------------------------------------------------------------
G---------------19-16-14-16-14-17-17-17-16h-17p-16-14-12---16-14-16-17-16-17-19-----
D-----------------------------------------------------------------------------------

[Chorus]
            G
(I know the) truth I'll tell you straight
            C
(Don't even) think about her
            G                 D
(Don't even) think about her, mate
            G
(I know the) truth I'll tell you straight
            C
(Don't even) think about her
            G                 D
(Don't even) think about her, mate
G
(I know the) truth I'll tell you straight
            C
(Don't even) think about her
            G                 D
(Don't even) think about her, mate
            G
(I know the) truth I'll tell you straight
            C
(Don't even) think about her
            G                 D
(Don't even) think about her, mate
            G
(I know the) truth I'll tell you straight
            C
(Don't even) think about her
            G                 D
(Don't even) think about her, mate
            G
(I know the) truth I'll tell you straight
            C
(Don't even) think about her
            G                 D
(Don't even) think about her, mate


            
            
Suggest correction
Creating personal tab
Creating personal tab
You can edit any tab online and save it as your Personal.

You can edit, replace or remove any tab part or add personal notes – all changes will be seen only by you.

Personal tabs can be accessed anytime from any device, even offline.
Learn more »
Give kudos to tab author, rate the tab!
1 2 3 4 5
comments
print report bad tab
guest
You may want to rate the tab now too:
select rating
Wanna post a correction for this tab? Suggest correction