Oops, an error
Loading. Please wait.

Leave The Kids Alone chords

529 views 21 this week
no commentswrite comment
1 2 3 4 5
2 more votes to show rating
add to favorites
×
Save as Personal and add changes to this tab that will be seen only by you. Learn more ›
×
You can save this tab as Personal to edit and correct it or add notes. All changes will be seen only by you. Learn more »
launch autoscroll
font size
0
reset
transpose
0
reset
display chords
guitar tuner
edit
Autoscroll
slow
fast
+/-
esc
set tempo
stop
Strumming
There is no strumming pattern for this song yet. and get +5 IQ
[Intro]

G    D    C     G
G    C    D     D
G    D    C     G
G    G    D     G

e--------7----7-10-10---7-10-12-12-10-7-------7-7-8-10-8-7------
B---10-8---------------------------------10-8--------------10---
G---------------------------------------------------------------

e--------7----7-10-10---7-10-12-12-10-7-------7-7----7------
B---10-8---------------------------------10-8-----10--10-8--
G-----------------------------------------------------------

[Verse]
G                                       D
You blame those kids for their bad mood You hate them for being Rude
C                                 G            D
But You don't realise how they feel
G                                   D
They come from smelly council flats Homes full of hate, cheap booze and drugs
C                              G              D
So don't expect them to be ideal

[Chorus]
G              D              C               G
Let them talk, let them think,Let them smoke, let them drink
G              C                D             D
Let them ask: "What the fuck is going on"
G              D              C              G
Let them live their own life, Let them shout let them fight
G                   D               G             G
So fuck yourself and leave the kids alone!

[Repeat all intro]

[Verse]
G                                      D
They have no future - who can they be? Frustrated - they hope and dream
C                                      G                D
They do some silly things coz they are bored
G                                   D
Her Dad's asleep, he's pissed again His mum is bitch, drives him insane
C                                      G                D
I'll tell you now - them kids can't be ignored

[Chorus]
G              D              C               G
Let them talk, let them think,Let them smoke, let them drink
G              C                D             D
Let them ask: "What the fuck is going on"
G              D              C              G
Let them live their own life, Let them shout let them fight
G                   D               G             G
So fuck yourself and leave the kids alone!

[Solo over verse chords]

G----------9---------------------------------------------------
D---9-12-9---12--9-7-12-9-7---9-7-5-5-5-7-9-12-9-5-5-5-7-9-7---
A--------------------------------------------------------------
E--------------------------------------------------------------

G---19-19-19-17-17-17-17-16h-17p-16-14-14-14-14-19-19-19-17-17-17-17-16h-17p-16-14-14-14-14-
D-------------------------------------------------------------------------------------------
A-------------------------------------------------------------------------------------------
E-------------------------------------------------------------------------------------------

G---19-19-19-17-17-17-17-16h-17p-16-14-14-14-14-12-12-12-14-16-19--
D------------------------------------------------------------------
A------------------------------------------------------------------
E------------------------------------------------------------------

[Chorus]
G              D              C               G
Let them talk, let them think,Let them smoke, let them drink
G              C                D             D
Let them ask: "What the fuck is going on"
G              D              C              G
Let them live their own life, Let them shout let them fight
G                   D               G             G
So fuck yourself and leave the kids alone!
G              D              C               G
Let them talk, let them think,Let them smoke, let them drink
G              C                D             D
Let them ask: "What the fuck is going on"
G              D              C              G
Let them live their own life, Let them shout let them fight
G                   D               G             G
So fuck yourself and leave the kids alone!
G              D              C               G
Let them talk, let them think,Let them smoke, let them drink
G              C                D             D
Let them ask: "What the fuck is going on"
G              D              C              G
Let them live their own life, Let them shout let them fight
G                   D               G             G
So fuck yourself and leave the kids alone!
G                   D               G             
So fuck yourself and leave the kids alone!

            
            
Suggest correction
Creating personal tab
Creating personal tab
You can edit any tab online and save it as your Personal.

You can edit, replace or remove any tab part or add personal notes – all changes will be seen only by you.

Personal tabs can be accessed anytime from any device, even offline.
Learn more »
Give kudos to tab author, rate the tab!
1 2 3 4 5
comments
print report bad tab
guest
You may want to rate the tab now too:
select rating
Wanna post a correction for this tab? Suggest correction