Oops, an error
Loading. Please wait.

Our Passion chords

178 views 3 this week
no commentswrite comment
1 2 3 4 5
2 more votes to show rating
add to favorites
×
Save as Personal and add changes to this tab that will be seen only by you. Learn more ›
×
You can save this tab as Personal to edit and correct it or add notes. All changes will be seen only by you. Learn more »
launch autoscroll
font size
0
reset
transpose
0
reset
display chords
guitar tuner
edit
Autoscroll
slow
fast
+/-
esc
set tempo
stop
Author
Strumming
There is no strumming pattern for this song yet. and get +5 IQ
[Intro]

e|-3-3-3--3-3--3-3-3--3-3--8-8-8--8-8--12-10-|
B|-3-3-3--3-3--3-3-3--3-3--8-8-8--8-8--12-10-|
G|-------------------------------------------|  x6
D|-------------------------------------------|
A|-------------------------------------------|
E|-------------------------------------------|

[Verse]
G                                                E  D
We still stand together, we have nothing to lose ....
G                                  E  D
In a world of lies, hate and abuse ....
G                                          E  D
We've had it before and won't take no more ....
G                                     E  D
And our pride is stronger than before ....

[Chorus]
G
Let me show you our passion
C
Football, reggae, skinhead fashion
G                                    D
Having a laugh and drink booze every night
G
Hated by every nation
C
We are the new skinhead generation
G                 D                 G
We do our best to waste our fucking lives

[Instrumental]
e|-3-3-3--3-3--3-3-3--3-3--8-8-8--8-8--12-10-|
B|-3-3-3--3-3--3-3-3--3-3--8-8-8--8-8--12-10-|
G|-------------------------------------------|  x4
D|-------------------------------------------|
A|-------------------------------------------|
E|-------------------------------------------|




G                                                 E D
If you don't wanna listen, don't stand in our way ....
G                                 E  D
Fuck politics! That's what we say ....
G                                 E  D
Right or left - Who gives a shit? ....
G                                         E  D
So, fuck you all, we'll never ever regret ....

[Chorus]
G
Let me show you our passion
C
Football, reggae, skinhead fashion
G                                    D
Having a laugh and drink booze every night
G
Hated by every nation
C
We are the new skinhead generation
G                 D                 G
We do our best to waste our fucking lives

[Instrumental]
e|-3-3-3--3-3--3-3-3--3-3--8-8-8--8-8--12-10-|
B|-3-3-3--3-3--3-3-3--3-3--8-8-8--8-8--12-10-|
G|-------------------------------------------|  x4
D|-------------------------------------------|
A|-------------------------------------------|
E|-------------------------------------------|
[Solo]
                                                 let ring
e|---------------------------------------------------------------------------------------------|
B|-----------12-12-12------------------------------------12-12-12------------------------------|
G|-12-12--14----------14-12-----12-----------12--12---14----------14-12-----12-----------------|
D|---------------------------14-----14-12-14-----------------------------14-----14-12----------|
A|------------------------------------------------------------------------------------14-12----|
E|---------------------------------------------------------------------------------------------|

                                                 let ring
e|-------------------------------------------------------------------------------------------------|
B|-----------12-12-12------------------------------------12-12-12----------------------------------|
G|-12-12--14----------14-12-----12-----------12--12---14----------14-12-----12---------------------|
D|---------------------------14-----14-12-14-----------------------------14-----14-12--------------|
A|------------------------------------------------------------------------------------14-12--------|
E|-------------------------------------------------------------------------------------------------|

[Outro]
G
Let me show you our passion
C
Football, reggae, skinhead fashion
G                                    D
Having a laugh and drink booze every night
G
Hated by every nation
C
We are the new skinhead generation
G                 D                 G
We do our best to waste our fucking lives

N.C
Let me show you our passion
N.C
Football, reggae, skinhead fashion
N.C
Having a laugh and drink booze every night
N.C
Hated by every nation
N.C
We are the new skinhead generati
N.C
We do our best to waste our fucking lives

[Chorus]
G
Let me show you our passion
C
Football, reggae, skinhead fashion
G                                    D
Having a laugh and drink booze every night
G
Hated by every nation
C
We are the new skinhead generation
G                 D                 G
We do our best to waste our fucking lives




            
            
Suggest correction
Creating personal tab
Creating personal tab
You can edit any tab online and save it as your Personal.

You can edit, replace or remove any tab part or add personal notes – all changes will be seen only by you.

Personal tabs can be accessed anytime from any device, even offline.
Learn more »
Give kudos to tab author, rate the tab!
1 2 3 4 5
comments
print report bad tab
guest
You may want to rate the tab now too:
select rating
Wanna post a correction for this tab? Suggest correction