Oops, an error
Loading. Please wait.

Flood Part Iii tab

version 1
version 1

Whole song

  • This is tabbed by closely watching several live vi... Show more
by Boris
3,763 views 3 this week
3 commentsread comments
1 2 3 4 5
x 5
add to favorites
×
Save as Personal and add changes to this tab that will be seen only by you. Learn more ›
×
You can save this tab as Personal to edit and correct it or add notes. All changes will be seen only by you. Learn more »
launch autoscroll
font size
0
reset
how to read this tab
guitar tuner
edit
Autoscroll
slow
fast
+/-
esc
set tempo
stop
Author
Unregistered
-------------------------------------------------------------------------------
                             Boris - Flood Part 3
-------------------------------------------------------------------------------
Tabbed by: David K
Email: thischarmingman13@gmail.com

Tuning: Standard

This part might be wrong. Sounds good to me. There are variations I couldn't catch.
e|---------------------------------------------------------------------------|
B|----6-6-6-----4-4----------------------------------------------------------|
G|---8-8-8-----3-3-3---------------------------------------------------------|
D|--6---------5--------------------------------------------------------------|
A|---------------------------------------------------------------------------|
E|---------------------------------------------------------------------------|

The last bit after these chords is only played once, at the end of the measure.
e|---------------------------------------------------------------------------|
B|---------------------------------------------------------------------------|
G|---7-8-10------------------------------------------------------------------|
D|-8-7-8-10-8-8--------------------------------------------------------------|
A|-8-5-6-8---8---------------------------------------------------------------|
E|-6-------------------------------------------------------------------------|

This part repeats. A lot.
e|---------------------------------------------------------------------------|
B|---------------------------------------------------------------------------|
G|---------------------------------------------------------------------------|
D|-12-13--10-12-8------------------------------------------------------------|
A|-12-13--10-12-8------------------------------------------------------------|
E|-10-11--8--10-6------------------------------------------------------------|


| /  slide up
| \  slide down
| h  hammer-on
| p  pull-off
| ~  vibrato
| +  harmonic
| x  Mute note
===============================================================================

            
            
Suggest correction
Creating personal tab
Creating personal tab
You can edit any tab online and save it as your Personal.

You can edit, replace or remove any tab part or add personal notes – all changes will be seen only by you.

Personal tabs can be accessed anytime from any device, even offline.
Learn more »
comments
print report bad tab
3 comments total.
0 reply
Indie Purist 949 Apr 26, 2012 10:25 PM

Alright, a correction to the tab; I didn't really know how to tab by ear in 2009. This should be closer...

e|---------------------------------------------------------|
B|-----6---6---------------1-------------------------------|
G|-----------8---------3-----3-----------------------------|
D|---6---6-----------1---1---------------------------------|
A|-8---------------3---------------------------------------|
E|---------------------------------------------------------|

0 reply
Agito01 10 Apr 13, 2013 01:13 PM

first of all
A# D# G# C# F A#

then

A#4|---------7-----------------------------------------------|
F4 |-----0---------------5---5-------------------------------|
C#4|---7---7---7-------6---6---6-----------------------------|
G#3|-5---------------4---------------------------------------|
D#3|---------------------------------------------------------|
A#2|---------------------------------------------------------|

0 reply
CoKane311 173 Nov 19, 2014 02:24 AM

Lack of accuracy. Clearly wrong. Tuning for the tab is wrong: tuning should be A# standard. The notes are not correct but they are somewhat close to what is actually played.

guest
Wanna post a correction for this tab? Suggest correction