Oops, an error
Loading. Please wait.

Empires Erased intro tab

version 1
version 1

Intro

Whole song

Interactive

15,752 views 1 this week
9 commentsread comments
1 2 3 4 5
2 more votes to show rating
add to favorites
×
Save as Personal and add changes to this tab that will be seen only by you. Learn more ›
×
You can save this tab as Personal to edit and correct it or add notes. All changes will be seen only by you. Learn more »
launch autoscroll
font size
0
reset
how to read this tab
guitar tuner
edit
Autoscroll
slow
fast
+/-
esc
set tempo
stop
----------------------------------------------------------------------------
                         Empires Erased - Born Of Osiris
----------------------------------------------------------------------------
Tabbed by:Steve! :D
Email:therabbit99999@yahoo.com

http://profile.myspace.com/index.cfm?
fuseaction=user.viewprofile&friendid=2241860&MyToken=0a161e3b-4623-4c9d-baaa-
0bef7a1bc936

Tuning: Drop C, dude.

0:00-0:10                       x5
D|-------------------------------|
A|-------------------------------|
F|-------------------------------|
C|-------------------------------|
G|------------------------1------|
C|-1-0-1--2-1--0-1--0-1-2---2-1|

0:10-0:15
D|------------------------------------------------|
A|------------------------------------------------|
F|--------------------------------------------<5>-|
C|-7-----6-----0-0-------0-----------------<5>----|
G|---5-----4---0-0-5-----0--------------<5>-------|
C|-----7-----6-0-0---6-3-0-3-5-6--<5><5>----------|

0:15-0:24
D|---------------------------------|
A|---------------------------------|
F|---------------------------------|
C|-7-----0-0--------------0-0------|
G|---5---0-0-(x4)---3-----0-0-(x4)-|
C|-----7-0-0----------6-5-0-0------|


0:25
Ummmmm

0:27-0:35    Not exact, but you get the idea.
D|----------------------------------------------|
A|----------------------------------------------|
F|----------------------------------------------|
C|----------------------------------------------|
G|-04-0022334-0022334-0022334-4-0022334-0022334-|
C|-0--002233--002233--002233----002233--002233--|
P.M.  ......  ......  ......    ......  ......

D|----------------------------------------------|
A|----------------------------------------------|
F|----------------------------------------------|
C|----------------------------------------------|
G|-03-0011223-0011223-0011223-3-0011223-0011223-|
C|-0--001122--001122--001122----001122--001122--|
P.M.  ......  ......  ......    ......  ......


            
            
Suggest correction
Creating personal tab
Creating personal tab
You can edit any tab online and save it as your Personal.

You can edit, replace or remove any tab part or add personal notes – all changes will be seen only by you.

Personal tabs can be accessed anytime from any device, even offline.
Learn more »
Give kudos to tab author, rate the tab!
1 2 3 4 5
comments
print report bad tab
9 comments total. Showing first comments.
0 reply
AugusTBurnShred 20 Mar 05, 2008 03:19 AM

not even close ! :(

+1 reply
metal10468 464 Mar 07, 2008 01:56 PM

I wouldnt say that. Theres parts that have the general idea and others that need some work. Here what I think the intro riff sounds like.

G|------------------1-1--|
C|-0h1h2-2p0-0h2-0h2-2-2-|

-2 reply
Lanceabstract 10 Mar 11, 2008 01:22 AM

these tabs are wrong. seriously... ur not that dumb are you. and why the hell did you put that dumb ass link in there. all you have to do is typer www.myspace.com/bornofosiris. OMFG what are you like 3 years old

guest
You may want to rate the tab now too:
select rating
Wanna post a correction for this tab? Suggest correction