Oops, an error
Loading. Please wait.

Barnacle Goose tab

12,165 views 1 this week
2 commentsread comments
1 2 3 4 5
x 4
add to favorites
×
Save as Personal and add changes to this tab that will be seen only by you. Learn more ›
×
You can save this tab as Personal to edit and correct it or add notes. All changes will be seen only by you. Learn more »
launch autoscroll
font size
0
reset
how to read this tab
guitar tuner
edit
Autoscroll
slow
fast
+/-
esc
set tempo
stop
Born Ruffians - Barnacle Goose


The positioning of thes notes are in time with the words above, if you know the song you 
understand.

Intro

& I'm frustated with myself but i cant change
e|-------------------------------------------------------|
B|---------11--------------------------------------------|
G|---------11--------------------------------------------|
D|---------11--------------------------------11----------|
A|---------9---------------------------------11----------|
E|-------------------------------------------9-----------|


I don't want be me anymore.
e|-------------------------------------------------------|
B|------------------------11-----------------------------|
G|------------------------11-----------------------------|
D|-------------9----------11-----------------------------|
A|-------------9----------9------------------------------|
E|-------------7-----------------------------------------|


& All the tics & tocs & clicks of clocks that tell
e|-------------------------------------------------------|
B|------------11-----------------------------------------|
G|------------11-----------------------------------------|
D|------------11----------------------------------11-----|
A|------------9-----------------------------------11-----|
E|------------------------------------------------9------|


the time tell me this is just a phase
e|---------------------------------------------------------|
B|-----------------------------------11--------------------|
G|-----------------------------------11--------------------|STRUM LAST CHORD
D|-------------------9--9----9-9-----11--------------------|
A|-------------------9--9----9-9-----9---------------------|
E|-------------------7--7----7-7---------------------------|


Intro 2

   & Everything every day...........
e|---------------------------------------------------------|
B|---------------------------------------------------------|
G|---------------------------------------------------------|
D|-13-13-13-13---13-13-13-13---11-11-11-11---11-11-11-11---|
A|-11-11-11-11---11-11-11-11---11-11-11-11---11-11-11-11---|
E|-11-11-11-11---11-11-11-11---9--9--9--9----9--9--9--9----|


   Can't come to form a thought except.....    ahhh, ahhh, ahhh, ahhhhhhh
e|---------------------------------------------------------|
B|-11-11-11-11---11-11-11-11---11-11-11-11---11-11-11-11---|
G|-11-11-11-11---11-11-11-11---11-11-11-11---11-11-11-11---|
D|-11-11-11-11---11-11-11-11---11-11-11-11---11-11-11-11---|
A|-9--9--9--9----9--9--9--9----9--9--9--9----9--9--9--9----|
E|---------------------------------------------------------|  X4

little instrumental bit... do a few twidely extra bits in between these notes
I cant be bothered to write the tabs for it
e|---------------9-------------7-------------2--------------------|
B|-11------------9-------------9-------------2--------------------|
G|-11------------10------------8-------------3--------------------|
D|-11------------11------------9-------------4--------------------|
A|-9-------------9-------------7-------------4--------------------|
E|-------------------------------------------2--------------------|


  Why can't you tell me.......
e|----------------------------------------------------------------|
B|-11----------------------------------------11-------------------|
G|-11----------------------------------------11-------------------|
D|-11-----------11-------------9-------------11-------------------|
A|-9------------11-------------9-------------9--------------------|
E|--------------9--------------7----------------------------------|  X4


 Intro 2 again

And thats all you need to know, you can work the rest out yourself. If anyone can 
on this please do, I have never wrote a tab before.

thankyou.

            
            
Suggest correction
Creating personal tab
Creating personal tab
You can edit any tab online and save it as your Personal.

You can edit, replace or remove any tab part or add personal notes – all changes will be seen only by you.

Personal tabs can be accessed anytime from any device, even offline.
Learn more »
comments
print report bad tab
2 comments total.
0 reply
KittyKatty93 10 Jul 10, 2008 11:25 AM

I think this sounds dead on.
What a tune btw
=]

0 reply
CaptBadass 119 Nov 11, 2008 09:45 PM

The guy plays it with a capo on the 2nd fret when he plays it, but it really doesn't make a difference. Great tab.

guest
Wanna post a correction for this tab? Suggest correction