Oops, an error
Loading. Please wait.

Foxes Mate For Life tab

version 1
version 1

Whole song

10,988 views 3 this week
3 commentsread comments
1 2 3 4 5
x 4
add to favorites
×
Save as Personal and add changes to this tab that will be seen only by you. Learn more ›
×
You can save this tab as Personal to edit and correct it or add notes. All changes will be seen only by you. Learn more »
launch autoscroll
font size
0
reset
how to read this tab
guitar tuner
edit
Autoscroll
slow
fast
+/-
esc
set tempo
stop
Difficulty
intermediate
Might not be 100% accurate but pretty good I think. I figured this out by ear.


listen to song for strumming these are the chords
intro - guitar 1
e--------------------|
B-7--11--8--8--10----|
G-5--10--9--9--8-----|
D--------9--7--10----|
A--------------------|
E--------------------|

guitar 2
e------x---12--|
B-12---8---12--|
G-12---9---12--|
D-12---9---11--|
A-10--(7)------|
E--------------|


the verse is the same as the guitar 2 intro

chorus
e--------8--7--5-|
B-12--8--5--7--5-|
G-12--9--5--7--5-|
D-12--9--5-------|
A-10--7----------|
E----------------|

yeah thats pretty much it the whole song, theres some changes but if you listen to the 
you can figure them out.

            
            
Suggest correction
Creating personal tab
Creating personal tab
You can edit any tab online and save it as your Personal.

You can edit, replace or remove any tab part or add personal notes – all changes will be seen only by you.

Personal tabs can be accessed anytime from any device, even offline.
Learn more »
comments
print report bad tab
3 comments total.
-1 reply
Bmm386 650 Aug 07, 2008 06:18 PM

Just incorrect. sounds wrong.

0 reply
sirjackrandall 50 May 12, 2009 12:58 AM

afraid that intro aint right buddy, the rest is nearly there

0 reply
cmojallali 10 Feb 18, 2015 02:31 PM

If anyone's curious many years later. He's correct in the intro, just written it on the wrong strings. Should be:

e-------------|
B------8-8-10-|
G-7-11-9-9-8--|
D-5-10-9-7-10-|
A-------------|
E-------------|

guest
Wanna post a correction for this tab? Suggest correction