Oops, an error
Loading. Please wait.

Foxes Mate For Life tab

version 2
version 2

Whole song

15,640 views 33 this week
2 commentsread comments
1 2 3 4 5
x 13
add to favorites
×
Save as Personal and add changes to this tab that will be seen only by you. Learn more ›
×
You can save this tab as Personal to edit and correct it or add notes. All changes will be seen only by you. Learn more »
launch autoscroll
font size
0
reset
how to read this tab
guitar tuner
edit
Autoscroll
slow
fast
+/-
esc
set tempo
stop
This song sounds better with a pick on electric of course :). Luke Lalonde
plays each fast chord as clear as a bell and very short - perhaps lots of
muting and fiddling with the tones/pickup. Also, two different sounding
guitars if you listen to the record. God dammit.... go and listen to the
record!

Intro - guitar 1

e--------------------------------------|
B-3333--7777--8888--8888--10-10-10-10--|
G-4444--5555--9999--9999---8--8--8--8--|
D-------------9999--7777--10-10-10-10--|
A--------------------------------------|
E--------------------------------------| x4

Then guitar 2 comes in over the top... and stays continuous until chorus.

e---------------------------12-12-12-12|
B-12-12--12-12--8-8--12-12--12-12-12-12|
G-12-12--12-12--9-9--12-12--12-12-12-12|
D-12-12--12-12--9-9--12-12--11-11-11-11|
A-10-10--10-10-------10-10-------------|
E--------------------------------------|

Chorus - first chord is strum very fast (for the 7s & 5s & 3s below, do an upstroke for 
second strum)

e-----------------8-8-----7-7--5-5--3-3|
B-12-12-12-12--8--5-5-----7-7--5-5--0-0|
G-12-12-12-12--9--5-5-----7-7--5-5--0-0|
D-12-12-12-12--9--5-5------------------|
A-10-10-10-10--7-----------------------|
E--------------------------------------|

And that's all I could come up with, the verses vary a little after chorus 1, but it's 
consistent on the whole.

Love Jackaroo

            
            
Suggest correction
Creating personal tab
Creating personal tab
You can edit any tab online and save it as your Personal.

You can edit, replace or remove any tab part or add personal notes – all changes will be seen only by you.

Personal tabs can be accessed anytime from any device, even offline.
Learn more »
comments
print report bad tab
2 comments total.
0 reply
nantinkspink 12 Feb 09, 2011 07:54 PM

This is great! Thanks. :)

0 reply
klemons12 31 Jul 11, 2015 03:22 PM

Guitar 1 should be:

e------------------------------------------------|
B-------7777--8888--------10-10-10-10------------|
G-7777--5555--9999--9999--8--8---8--8------------|
D-5555--------------7777-------------------------|
A------------------------------------------------|
E------------------------------------------------|

guest
You may want to rate the tab now too:
select rating
Wanna post a correction for this tab? Suggest correction