Oops, an error
Loading. Please wait.

Hummingbird bass

version 2
version 2

Whole song

Interactive

5,846 views 3 this week
1 commentread comment
1 2 3 4 5
x 7
add to favorites
×
Save as Personal and add changes to this tab that will be seen only by you. Learn more ›
×
You can save this tab as Personal to edit and correct it or add notes. All changes will be seen only by you. Learn more »
launch autoscroll
font size
0
reset
guitar tuner
edit
Autoscroll
slow
fast
+/-
esc
set tempo
stop
Author
-------------------------------------------------------------------------------
                             Hummingbird - Born Ruffians
-------------------------------------------------------------------------------

Tabbed By : dakota_s_
e-mail: dakota_s_@hotmail.com

Tuning:Standard

Well I gave it my all but there are still two parts I am unsure about. 
The part at 0:38 and the part at 2:30. 
If you see anything else wrong then just send the corrections.

(0:00)
G|------------------|
D|------------------|
A|------------------|
E|-3333333333333333-|

(0:03)
G|-0-4-05-0-4-07-7-0-4-05-0-4-02-2-|
D|---------------------------------|
A|---------------------------------|
E|---------------------------------|

(0:07)
G|-----------------------------------|
D|------54-2-2222----------2---------|
A|---------------5235-5-55---222232--| x6
E|-3-3-----------------------------5-|

(0:38)
G|-----------7~--9~------------7~--9--------|
D|-5~--2~------------5~--2~----------22-----|
A|------------------------------------------|
E|---------------------------------------00-|

(0:49)
G|-0-4-05-0-4-07-7-0-4-05-0-4-02-2-0-4-05-0-4-07-7-|
D|-------------------------------------------------|
A|-------------------------------------------------|
E|-------------------------------------------------|

(0:57)
G|------------------|
D|------------------|
A|------------------|
E|-3333333333333332-|

(1:00)
G|-----------------------------------|
D|------54-2-2222----------2---------|
A|---------------5235-5-55---222232--|x4
E|-3-3-----------------------------5-|

(1:21)
G|-0-4-05-0-4-07-7-0-4-05-0-4-02-2-0-4-05-0-4-07-7-|
D|-------------------------------------------------|
A|-------------------------------------------------|
E|-------------------------------------------------|

(1:28)
G|------------------|
D|------------------|
A|------------------|
E|-3333333333333332-|

(1:31)
G|-0-4-05-0-4-07-7-0-4-05-0-4-02-2-0-4-05-0-4-07-7-|
D|-------------------------------------------------|
A|-------------------------------------------------|
E|-------------------------------------------------|

(1:38)
G|------------------|
D|------------------|
A|------------------|
E|-3333333333333332-|

(1:41)
G|-----------------------------------|
D|------54-2-2222----------2---------|
A|---------------5235-5-55---222232--|x2
E|-3-3-----------------------------5-|

(1:51)
G|--------------------------------------|
D|--------------------------------------|
A|---------------------2222-------------|x2
E|-0000-2222-3-3333333------55-33333333-|

(2:01)
G|-----------------------------------|
D|------54-2-2222----------2---------|
A|---------------5235-5-55---222232--|x2
E|-3-3-----------------------------5-|

(2:12)
G|-------------------------------|
D|-------------------------------|
A|----------------2--------------|x2
E|-0--2-3-333-333----5-3-333-333-|

(2:21)
G|-0-4-05-0-4-0770-4-05-0-4-0220-4-05-0-4-0770-9-011-0-12-01212-|
D|--------------------------------------------------------------|
A|--------------------------------------------------------------|
E|--------------------------------------------------------------|

(2:30)
G|-----------------------------------------------------------|
D|---5-2------------5-2--2---------5-2------------5-2--2-222-|
A|------3-5------------3--------------3-5------------3-------|
E|-3--------3-3-3-3--------3-3-3-3--------3-3-3-3------------|

(2:43)
G|-----------------------------------|
D|------54-2-2222----------2---------|
A|---------------5235-5-55---222232--|x4
E|-3-3-----------------------------5-|

            
            
Suggest correction
Creating personal tab
Creating personal tab
You can edit any tab online and save it as your Personal.

You can edit, replace or remove any tab part or add personal notes – all changes will be seen only by you.

Personal tabs can be accessed anytime from any device, even offline.
Learn more »
comments
print report bad tab
1 comment total.
+1 reply
dakota_s_ 277 Jul 25, 2009 04:17 PM

(0:38)
G|--------------------------------------------------|
D|-5~--2~----0~--2~------5~--2~----0~--2~----22-----|
A|--------------------------------------------------|
E|-----------------------------------------------00-|

could work as well cause I'm not really sure bout this part

guest
You may want to rate the tab now too:
select rating
Wanna post a correction for this tab? Suggest correction