Oops, an error
Loading. Please wait.
We have an official More Than A Feeling tab made by UG professional guitarists. Check out the tab »
×
by Boston
12,483 views 1 this week
8 commentsread comments
1 2 3 4 5
x 10
add to favorites
×
Save as Personal and add changes to this tab that will be seen only by you. Learn more ›
×
You can save this tab as Personal to edit and correct it or add notes. All changes will be seen only by you. Learn more »
launch autoscroll
font size
0
reset
guitar tuner
backing track
0:00
0:00
edit
Autoscroll
slow
fast
+/-
esc
set tempo
stop
Author
Difficulty
Artist: Boston
Song: More Than A Feeling

G|------------------|----------------|-----------------------|
D|------------------|----------------|-----------------------|
A|-5----------------|-3-----2--------|-5-------------5---5---|
E|----------------5-|--------------3-|-------------5---5-----|

|-------------------|-----------------|------------------|------|---------|
|-------------7-----|-----------------|------------------|------|---------|
|-5---------5---5---|-5-------5-5-7-5-|-5----------5---5-|-3----|-2-------|
|-----------------5-|-----------------|----------5---5---|------|---------|

|---------------------|----------------------|
|-7----5----5---7-5---|----------------------|
|--------7----------7-|-5-5-5-5-5-5-3-5------|
|---------------------|-----------------5----|

|--------------|----------------------|---------------------|
|.-------------|---------------------.|---------------------|
|.-------------|-7-7---7-7-----5-5-3-.|-7-7---7-7-----5-5---|
|-3-3-3/8-8-8--|-----7-------7--------|-----7-------7-----5-|

|--------------|----------------------|------|
|.-------------|---------------------.|------|
|.-------------|-7-7---7-7-----5-5---.|-6----|
|--3-3-3/8-8-8-|-----7-------7-----2--|------|

|-----------------|---------------------|---------------|-----------|-------|
|-----------------|----7-7/9----7-9---7-|-----5---5-----|-5---4---2-|-------|
|----7--7-9-7-9---|-----------------9---|-----------5---|-----------|-5-----|
|-0-------------0-|-5-------------------|-3-----------3-|-----------|-------|

And that's all there is to it!

            
            
Suggest correction
Creating personal tab
Creating personal tab
You can edit any tab online and save it as your Personal.

You can edit, replace or remove any tab part or add personal notes – all changes will be seen only by you.

Personal tabs can be accessed anytime from any device, even offline.
Learn more »
comments
print report bad tab
8 comments total. Showing first comments.
+1 reply
LeftyBassPlayer 10 Mar 30, 2008 06:38 PM

i dont get it wut do i do furing the solo
and do i just repet this over and over?

+1 reply
LeftyBassPlayer 10 Mar 30, 2008 06:39 PM

during the solo*?

+1 reply
Sixx66FeetUnder 62 May 11, 2008 05:29 PM

The : marks at the beginning and end of a section indicate a repeat. Just play this in this order with the repeats and you should have the whole song.

guest
You may want to rate the tab now too:
select rating
Wanna post a correction for this tab? Suggest correction