Oops, an error
Loading. Please wait.
We have an official Peace Of Mind tab made by UG professional guitarists. Check out the tab »
×
by Boston
5,474 views 9 this week
2 commentsread comments
1 2 3 4 5
x 4
add to favorites
×
Save as Personal and add changes to this tab that will be seen only by you. Learn more ›
×
You can save this tab as Personal to edit and correct it or add notes. All changes will be seen only by you. Learn more »
launch autoscroll
font size
0
reset
how to read this tab
guitar tuner
backing track
0:00
0:00
edit
Autoscroll
slow
fast
+/-
esc
set tempo
stop
Author
First tab, so feel free to comment

Rhythm isn't exact, so listen to the song

UPDATED! Fixed several inaccuracies I noticed.

[Intro]
|-4---5--5---------7--7-7--7-7--|
|-5-x-5--5---------9--9-7--8-7--|
|-6-x-6--6-x-x-x-x-9--9-8--9-8--| (x2)
|-6-x-7--7-x-x-x-x-9--9-9--9-9--|
|-4-x-7--7-x-x-x-x-7--7-9--7-9--|
|-----5--5-x-x-x-x------7----7--|

[Riff]
|--------------------------------------------------------------|
|--------------------------------------------------------------|
|--------------------------------------------------------------|
|--4/6-4----------------4-------------------4-6-7-4--6-4h6p4---|
|--------7-4--4--4-6-7----6--7-6----4--4--7------------------7-|
|--------------------------------7-----------------------------|


------------------------------------------------------------|
------------------------------------------------------------|
------------------------------------------------------------|
-----------------4-------------------4-6--7-4--6--4h6p4-----|
------4--4-6-7-----6--7-6----4--4--7--------------------7---|
---------------------------7--------------------------------|

[Pre-Verse]
|------------------------------------------------------------
|--9--10--9--9--9-10-9-10-9-10---9-9-10-9-10-10s12-12-10-----
|--9---9--9--9--9--9-9--9-9--9---9-9--9-9-11-11s13-13-11-----
|--9--11--9--9--9-11-9-11-9-11---9-9-11-9--------------------
|------------------------------------------------------------
|------------------------------------------------------------

----------------------|
-9--------------------|
-9--9--9------9-------|
----11-9------9-------|
---------9h11---------|
----------------------|

[Verse]
|-------------------------------------------------------------|
|-9-10--9-9-9--10--9------------------------------------------|
|-9--9--9-9-9---9--9---------------7-7-------9-9--------------|
|-9-11--9-9-9--11--9-------9h11----7-7--7-7--9-9------9-9h11--|
|---------------------9h11---------5-5--7-7--7-7-9h11---------|
|---------------------------------------5-5-------------------|

------------------------------------------------------------|
------------9--10--9--9--9-10-9-----------------------------|
-9----------9---9--9--9--9--9-9---------------7-7-----------|
---------9--9--11--9--9--9-11-9-------9h11----7-7--7-7------|
---9h11--------------------------9h11---------5-5--7-7------|
---------------------------------------------------5-5------|


[Pre-Chorus]
|---------------------------------------------|
|---------------------------------------------|
|---------------------------------------------|
|---------------------------------------------|
|--9--9-11-9-9-9-11-9-9-9-11-9-9-9-11-9-------|
|--7--7--7-7-7-7--7-7-7-7--7-7-7-7--7-7-------|

[Chorus]
|-4---5--5---------7--7-7--7-7--|
|-5-x-5--5---------9--9-7--8-7--|
|-6-x-6--6-x-x-x-x-9--9-8--9-8--| (x4)
|-6-x-7--7-x-x-x-x-9--9-9--9-9--|
|-4-x-7--7-x-x-x-x-7--7-9--7-9--|
|-----5--5-x-x-x-x------7----7--|

[repeat Pre-Verse, Verse, Pre-Chorus and Chorus]

[Bridge]
|-------------------------------|---|
|-------------------------------|---| (x4)
|-----------------2---6---9-(x)-|---| play on fourth time
|--9-9-9-9-9------2---6---9-(x)-|-2-|
|--9-9-9-9-9------0-0-4-0-7-(x)-|-2-|
|--7-7-7-7-7--2-4---------------|-0-|

[Solo]
|-------------------------------------------------------------|
|-------------------------------------------------------------|
|--------------4-7p4---4-7b9--7-6--4h6p4----------------------|
|--------2-4/6-------6--------------------7-------------------|
|----2-4-------------------------------------7-5--------------|
|--4---------------------------------------------7-5-4--------|

-------------------------------------------------------------|
-------------------------------------------------------------|
------11h14p12p11----12b14--12-11--9h11p9----9-11p9--------9-|
--14--------------14----------------------11--------11p9-----|
---------------------------------------------------------11--|
-------------------------------------------------------------|

--------------------------------------------------19--------|
----17----17--20b22--20-19--17h19p17----17--19b21----19b21\-|
-18----18----------------------------18---------------------|
------------------------------------------------------------|
------------------------------------------------------------|
------------------------------------------------------------|


---------------------------7--------------------------16-17b19-|
---------------------------------------------------19----------|
------------4h6p4---4--6b8---6b8b6--4--------18b20-------------|
---4-5-6-7--------6-----------------------16-------------------|
---------------------------------------18----------------------|
---------------------------------------------------------------|


[Guitar Harmony, Guitar 1]
|---------------------------------------------------------------|
|-----------7-9-10-7--9-7h9p7------12b14--12-10h12p10-9-7-------|
|--8-9-9--9------------------8-8-8------------------------------|
|----------------------------------------------------------9----|
|---------------------------------------------------------------|
|---------------------------------------------------------------|

|---------------------------------------------------------------------|
|-----------7-9-10-7--9-7h9p7------12b14--12-10h12p10-9-7-9-7h9p7-----|
|--8-9-9--9------------------8--8-8-------------------------------9-6-|
|---------------------------------------------------------------------|
|---------------------------------------------------------------------|
|---------------------------------------------------------------------|

[Guitar 2]
|---------------------------------------------------------------|
|-----------4-5-7-4--5-4h5p4---------9b10---9--7h9p7-5--4-------|
|--4-6-6--6------------------4--4-4-----------------------------|
|----------------------------------------------------------6----|
|---------------------------------------------------------------|
|---------------------------------------------------------------|

|---------------------------------------------------------------------|
|-----------4-5-7-4--5-4h5p4---------9b10---9--7h9p7-5-4-5-4h5p4------|
|--4-6-6--6------------------4--4-4------------------------------6--2-|
|---------------------------------------------------------------------|
|---------------------------------------------------------------------|
|---------------------------------------------------------------------|

[Little bit after harmony]
|------------19b21---|
|------16-17---------|
|--/18---------------|
|--------------------|
|--------------------|
|--------------------|

-repeat Pre-Verse, Verse, Pre-Chorus, Chorus, Bridge-

[Bridge 2] There's some sort of harmony here I can't figure out
Version 1:       Version 2:        Version 3:       Version 4
|-------------|  |--------------|  |-------------|  |------------------|
|-------------|  |--------------|  |-------------|  |-2-2-2(/)6-4-2-1--|
|-------------|  |--------------|  |-------------|  |------------------|
|-------------|  |-6-6-6(/)9-8--|  |-2-2-2(/)6-4-|  |------------------|
|7-7-7(/)11-9-|  |-4-4-4(/)7-6--|  |-------------|  |------------------|
|5-5-5(/)9--7-|  |--------------|  |-------------|  |------------------|

-play Chorus chords twice-

[Riff 2]
|----------------------------------------------------------|
|----------------------------------------------------------|
|----------------------------------------------------------|
|--4/6-4-----------4-------------------4-6--7-4--6-4h6p4---|
|--------7-4-4-6-7---6-7-6h7p6---4-4-7-------------------7-|
|------------------------------7---------------------------|

----------------------------------------------------|
----------------------------------------------------|
----------------------------------------------------|
-------------4-------------------4-6--7-4--6-7-9----|
-----4-4-6-7---6-7-6h7p6---4-4-7--------------------|
-------------------------7--------------------------|

[Riff 3] Repeat twice (Guitar 2 plays Riff 2 in harmony)
|---------------------------------------------------------------------|
|---------------------------------------------------------------------|
|-----------8-9--11-8-9-8h9p8---------9-11-13b14r13-11-9-11-9h11p9-8--|
|-11-11--11-------------------9-11-11---------------------------------|
|---------------------------------------------------------------------|
|---------------------------------------------------------------------|

[Riff 4] Right after Riff 3,plays harmony with Riff 3 four times, fades out
|-----------------------------------------------------------------|
|---------7-9--10-7--9-7h9p7-------9-10-12b14r12-10-9-10-9h10p9---|
|--9-9--9--------------------8-9-9------------------------------9-|
|-----------------------------------------------------------------|
|-----------------------------------------------------------------|
|-----------------------------------------------------------------|

            
            
Suggest correction
Creating personal tab
Creating personal tab
You can edit any tab online and save it as your Personal.

You can edit, replace or remove any tab part or add personal notes – all changes will be seen only by you.

Personal tabs can be accessed anytime from any device, even offline.
Learn more »
comments
print report bad tab
2 comments total.
0 reply
Norphin 160 Jan 28, 2009 06:29 AM

Found a some problems with the tab and I don't know how to edit it, so I'm putting it here:

[Pre-Verse]
|------------------------------------------------------------|
|--9--10--9--9--9-10-9-10-9-10-9--10-9-9-10-9-10-10s12-12-10-|
|--9---9--9--9--9--9-9--9-9--9-9---9-9-9--9-9-11-11s13-13-11-|
|--9--11--9--9--9-11-9-11-9-11-9--11-9-9-11-9----------------|
|------------------------------------------------------------|
|------------------------------------------------------------|

--------------|
-9------------|
-9-9--9-------|
---11-9-9h11--|
--------------|
--------------|

will continue tomorrow, cuz I have to sleep =)

-1 reply
RainLord 60 May 10, 2009 07:03 AM

Great tab! couple small things:

|-------------------------------|
|-5-x--------------8--8----8----|
|-6-x-6--6-x-x-x-x-9--9-8--9-8--|
|-6-x-7--7-x-x-x-x-9--9-9--9-9--|
|-4-x-7--7-x-x-x-x-7--7-9--7-9--|
|-----5--5-x-x-x-x------7----7--|

should be
|-------------------------------|
|-5-x--------------9--9----8----|
|-6-x-6--6-x-x-x-x-9--9-8--9-8--|
|-6-x-7--7-x-x-x-x-9--9-9--9-9--|
|-4-x-7--7-x-x-x-x-7--7-9--7-9--|
|-----5--5-x-x-x-x------7----7--|

------------------------------------------------------------|
------------9--10--9--9--9-10-9---------------6-6-----------|
-9----------9---9--9--9--9--9-9---------------7-7--6-6------|
---------9--9--11--9--9--9-11-9-------9h11----7-7--7-7------|
---9h11--------------------------9h11---------5-5--7-7------|
---------------------------------------------------5-5------|

should be:

------------------------------------------------------------|
------------9--10--9--9--9-10-9---------------7-7-----------|
-9----------9---9--9--9--9--9-9---------------7-7--6-6------|
---------9--9--11--9--9--9-11-9-------9h11----7-7--7-7------|
---9h11--------------------------9h11---------5-5--7-7------|
---------------------------------------------------5-5------|

Also I think riff 3 should say:
|-------------------------------------------------------------------|
|-------------------------------------------------------------------|
|-----------8-9--11-8-9-8h9p8---------9-11-11b13r11-9-8--9-8h9p8----|
|-11-11--11-------------------9-11-11-----------------------------9-|
|-------------------------------------------------------------------|
|-------------------------------------------------------------------|

and riff 4 should be:
|-----------------------------------------------------------------|
|---------7-9--10-7--9-7h9p7-------9-10-10b12r10-9-7--9-7h9p7-----|
|--9-9--9--------------------8-9-9----------------------------8---|
|-----------------------------------------------------------------|
|-----------------------------------------------------------------|
|-----------------------------------------------------------------|

Otherwise, looks awesome!

guest
You may want to rate the tab now too:
select rating
Wanna post a correction for this tab? Suggest correction