Oops, an error
Loading. Please wait.
We have an official Smokin tab made by UG professional guitarists. Check out the tab »
×

Smokin bass

version 2
version 2

Whole song

  • This is an accurate tab for this song which utilis... Show more

Interactive

by Boston
208 views 3 this week
no commentswrite comment
1 2 3 4 5
x 3
add to favorites
×
Save as Personal and add changes to this tab that will be seen only by you. Learn more ›
×
You can save this tab as Personal to edit and correct it or add notes. All changes will be seen only by you. Learn more »
launch autoscroll
font size
0
reset
guitar tuner
backing track
0:00
0:00
edit
Autoscroll
slow
fast
+/-
esc
set tempo
stop
Author
Difficulty
About this tab version
This is an accurate tab for this song which utilises notes on all 5 strings of the bass, but 99% could also be played on a 4 string bass, swapping just 2 notes with the relevant octave notes (which have also been included in this tab). This song has a "swing" feel to it and includes notation above the tab when to play each note to make it a little bit easier to follow. Was this info helpful? Yes No
Title: Smokin'
Artist: Boston
Album: Boston
Tuning: 5 String Standard (B E A D G)
Tab Author: Pearce Hamblin (The Bass Diaries)

  [Intro]
   1 - 2 - 3 - 1 - 2 - 3 - 1 - 2 - 3 - 1 - 2 - 3 -   1 - 2 - 3 - 1 - 2 - 3 - 1 - 2 - 3 - 1 - 2 - 3 -
G|-------------------------------------------------|-------------------------------------------------|
D|-------------------------------------------------|-------------------------------------------------|
A|-------------------------------------------------|-------------------------------------------------|
E|-------------------------------------------------|-------------------------------------------------|
B|-------------------------------------------------|-------------------------------------------------|


   1 - 2 - 3 - 1 - 2 - 3 - 1 - 2 - 3 - 1 - 2 - 3 -   1 - 2 - 3 - 1 - 2 - 3 - 1 - 2 - 3 - 1 - 2 - 3 -
G|-------------------------------------------------|-------------------------------------------------|
D|-------------------------------------------------|-7---7---7---7---7---7---7---7---7---5-----------|
A|-------------------------------------------------|-----------------------------------------7---5---|
E|-------------------------------------------------|-------------------------------------------------|
B|-------------------------------------------------|-------------------------------------------------|


   1 - 2 - 3 - 1 - 2 - 3 - 1 - 2 - 3 - 1 - 2 - 3 -   1 - 2 - 3 - 1 - 2 - 3 - 1 - 2 - 3 - 1 - 2 - 3 -
G|-------------------------------------------------|-------------------------------------------------|
D|-------------------------------------------------|-------------------------------------------------|
A|-------------------------------------------------|-------------------------------------------------|
E|-5-------5---5-------5---5-------5---5-------5---|-5-------5---5-------5---5-------5---3-------4---|
B|-------------------------------------------------|-------------------------------------------------|


   1 - 2 - 3 - 1 - 2 - 3 - 1 - 2 - 3 - 1 - 2 - 3 -   1 - 2 - 3 - 1 - 2 - 3 - 1 - 2 - 3 - 1 - 2 - 3 -
G|-------------------------------------------------|-------------------------------------------------|
D|-------------------------------------------------|-------------------------------------------------|
A|-------------------------------------------------|-------------------------------------3-------4---|
E|-5-------5---5-------5---5-------5---5-------5---|-5-------5---5-------5---5-------5---------------|
B|-------------------------------------------------|-------------------------------------------------|

 [Verse 1]
   1 - 2 - 3 - 1 - 2 - 3 - 1 - 2 - 3 - 1 - 2 - 3 -   1 - 2 - 3 - 1 - 2 - 3 - 1 - 2 - 3 - 1 - 2 - 3 -
G|-------------------------------------------------|-------------------------------------------------|
D|-------------4-------4---5-------5---6-------7---|-------------------------------------------------|
A|-5-------5---------------------------------------|-5-------5---3-------2---2-------3---------------|
E|-------------------------------------------------|-------------------------------------------------|
B|-------------------------------------------------|-------------------------------------------------|


   1 - 2 - 3 - 1 - 2 - 3 - 1 - 2 - 3 - 1 - 2 - 3 -   1 - 2 - 3 - 1 - 2 - 3 - 1 - 2 - 3 - 1 - 2 - 3 -
G|-------------------------------------------------|-------------------------------------------------|
D|-------------------------------------------------|-------------------------------------------------|
A|-------------------------------------------------|---------------------------------------------3---|
E|-5-------5---5-------5---5-------5---3-------4---|-5-------5---5-------5---5-------5---5-----------|
B|-------------------------------------------------|-------------------------------------------------|


   1 - 2 - 3 - 1 - 2 - 3 - 1 - 2 - 3 - 1 - 2 - 3 -   1 - 2 - 3 - 1 - 2 - 3 - 1 - 2 - 3 - 1 - 2 - 3 -
G|-------------------------------------------------|-------------------------------------------------|
D|-------------------------------------------------|-------------------------------------------------|
A|-5-------5---------------------------------------|-5-------5---3-------3---2-------3---------------|
E|-------------2-------2---3-------3---4-------5---|-------------------------------------------------|
B|-------------------------------------------------|-------------------------------------------------|


   1 - 2 - 3 - 1 - 2 - 3 - 1 - 2 - 3 - 1 - 2 - 3 -   1 - 2 - 3 - 1 - 2 - 3 - 1 - 2 - 3 - 1 - 2 - 3 -
G|-------------------------------------------------|-------------------------------------------------|
D|-------------------------------------------------|-------------------------------------------------|
A|-------------------------------------------------|-------------------------------------------------|
E|-5-------5---5-------5---5-------2---3-------4---|-5-------5---5-------5---5-------5---3-------0---|
B|-------------------------------------------------|-------------------------------------------------|

  [B-Section 1]
   1 - 2 - 3 - 1 - 2 - 3 - 1 - 2 - 3 - 1 - 2 - 3 -   1 - 2 - 3 - 1 - 2 - 3 - 1 - 2 - 3 - 1 - 2 - 3 -
G|-------------------------------------------------|-------------------------------------------------|
D|-------------------------------------------------|-------------------------------------------------|
A|-7-------7-----------7---------------------------|-5-------5-------5-------------------------------|
E|-------------0-----------------------------------|-------------------------5-----------------------|
B|-------------------------------------------------|-------------------------------------------------|


   1 - 2 - 3 - 1 - 2 - 3 - 1 - 2 - 3 - 1 - 2 - 3 -   1 - 2 - 3 - 1 - 2 - 3 - 1 - 2 - 3 - 1 - 2 - 3 -
G|-------------------------------------------------|-------------------------------------------------|
D|-------------------------------------------------|---------5---------------------------------------|
A|-7-------7-----------7---------------------------|-3-----------3-------------------5---------------|
E|-------------0-----------------------------------|---------------------3---------------------------|
B|-------------------------------------------------|-------------------------------------------------|


   1 - 2 - 3 - 1 - 2 - 3 - 1 - 2 - 3 - 1 - 2 - 3 -   1 - 2 - 3 - 1 - 2 - 3 - 1 - 2 - 3 - 1 - 2 - 3 -
G|-------------------------------------------------|-------------------------------------------------|
D|-------------------------------------------------|-------------------------------------------------|
A|-------------------------------------------------|-------------------------------------------------|
E|-5-------5---5-------5---5-------5---5-------3---|-5-------5---5-------5---5-------5---5-------3---|
B|-------------------------------------------------|-------------------------------------------------|


   1 - 2 - 3 - 1 - 2 - 3 - 1 - 2 - 3 - 1 - 2 - 3 -   1 - 2 - 3 - 1 - 2 - 3 - 1 - 2 - 3 - 1 - 2 - 3 -
G|-------------------------------------------------|-------------------------------------------------|
D|-------------------------------------------------|-------------------------------------------------|
A|-------------------------------------------------|-------------------------------------------------|
E|-5-------5---5-------5---5-------5---5-------3---|-5-------5---5-------5---5-------5---5-------5---|
B|-------------------------------------------------|-------------------------------------------------|

  [Chorus 1]
   1 - 2 - 3 - 1 - 2 - 3 - 1 - 2 - 3 - 1 - 2 - 3 -   1 - 2 - 3 - 1 - 2 - 3 - 1 - 2 - 3 - 1 - 2 - 3 -
G|-------------------------------------------------|-------------------------------------------------|
D|-------------------------------------------------|-------------------------------------------------|
A|-------------------------------------------------|---------------------5-----------5---------------|
E|---------------------5-----------5---------------|-------------------------------------------------|
B|-------------------------------------------------|-------------------------------------------------|


   1 - 2 - 3 - 1 - 2 - 3 - 1 - 2 - 3 - 1 - 2 - 3 -   1 - 2 - 3 - 1 - 2 - 3 - 1 - 2 - 3 - 1 - 2 - 3 -
G|-------------------------------------------------|-------------------------------------------------|
D|-------------------------------------------------|-2---4---2---------------------------------------|
A|-3-----------3-----------5-----------5-----------|-------------3-----------------------------------|
E|-------------------------------------------------|---------------------5-----------5---------------|
B|-------------------------------------------------|-------------------------------------------------|


   1 - 2 - 3 - 1 - 2 - 3 - 1 - 2 - 3 - 1 - 2 - 3 -   1 - 2 - 3 - 1 - 2 - 3 - 1 - 2 - 3 - 1 - 2 - 3 -
G|-------------------------------------------------|-------------------------------------------------|
D|-------------------------------------------------|-------------------------------------------------|
A|-------------------------------------------------|---------------------5-----------5---------------|
E|---------------------5-----------5---------------|-------------------------------------------------|
B|-------------------------------------------------|-------------------------------------------------|


   1 - 2 - 3 - 1 - 2 - 3 - 1 - 2 - 3 - 1 - 2 - 3 -   1 - 2 - 3 - 1 - 2 - 3 - 1 - 2 - 3 - 1 - 2 - 3 -
G|-------------------------------------------------|-------------------------------------------------|
D|-------------------------------------------------|-2---4---2---------------------------------------|
A|-3-----------3-----------5-----------5-----------|-------------3-----------------------------------|
E|-------------------------------------------------|---------------------5-----------3---------------|
B|-------------------------------------------------|-------------------------------------------------|

  [Intro Riff]
   1 - 2 - 3 - 1 - 2 - 3 - 1 - 2 - 3 - 1 - 2 - 3 -   1 - 2 - 3 - 1 - 2 - 3 - 1 - 2 - 3 - 1 - 2 - 3 -
G|-------------------------------------------------|-------------------------------------------------|
D|-------------------------------------------------|-------------------------------------------------|
A|-------------------------------------------------|-------------------------------------------------|
E|-5-------5---5-------5---5-------5---5-------3---|-5-------5---5-------5---5-------5---5-------3---|
B|-------------------------------------------------|-------------------------------------------------|


   1 - 2 - 3 - 1 - 2 - 3 - 1 - 2 - 3 - 1 - 2 - 3 -   1 - 2 - 3 - 1 - 2 - 3 - 1 - 2 - 3 - 1 - 2 - 3 -
G|-------------------------------------------------|-------------------------------------------------|
D|-------------------------------------------------|-------------------------------------------------|
A|-------------------------------------------------|-------------------------------------3---4---4---|
E|-5-------5---5-------5---5-------5---5-------3---|-5-------5---5-------5---5-------5---------------|
B|-------------------------------------------------|-------------------------------------------------|

  [Verse 2]
   1 - 2 - 3 - 1 - 2 - 3 - 1 - 2 - 3 - 1 - 2 - 3 -   1 - 2 - 3 - 1 - 2 - 3 - 1 - 2 - 3 - 1 - 2 - 3 -
G|-------------------------------------------------|-------------------------------------------------|
D|-------------4-------4---5-------5---7---5-------|-------------------------------------------------|
A|-5-------5-----------------------------------7---|-5-------5---3-------3---2-------3---------------|
E|-------------------------------------------------|-------------------------------------------------|
B|-------------------------------------------------|-------------------------------------------------|


   1 - 2 - 3 - 1 - 2 - 3 - 1 - 2 - 3 - 1 - 2 - 3 -   1 - 2 - 3 - 1 - 2 - 3 - 1 - 2 - 3 - 1 - 2 - 3 -
G|-------------------------------------------------|-------------------------------------------------|
D|-------------------------------------------------|-------------------------------------------------|
A|-------------------------------------------------|-------------------------------------3-------4---|
E|-5-------5---5-------5---5-------5---5-------3---|-5-------5---5-------5---5-------5---------------|
B|-------------------------------------------------|-------------------------------------------------|


   1 - 2 - 3 - 1 - 2 - 3 - 1 - 2 - 3 - 1 - 2 - 3 -   1 - 2 - 3 - 1 - 2 - 3 - 1 - 2 - 3 - 1 - 2 - 3 -
G|-------------------------------------------------|-------------------------------------------------|
D|-------------------------------------------------|-------------------------------------------------|
A|-5-------5---3-------3---2-------2---------------|-5-------5---3-------3---2-------3---------------|
E|-------------------------------------5-------3---|-------------------------------------------------|
B|-------------------------------------------------|-------------------------------------------------|


   1 - 2 - 3 - 1 - 2 - 3 - 1 - 2 - 3 - 1 - 2 - 3 -   1 - 2 - 3 - 1 - 2 - 3 - 1 - 2 - 3 - 1 - 2 - 3 -
G|-------------------------------------------------|-------------------------------------------------|
D|-------------------------------------------------|-------------------------------------------------|
A|-------------------------------------------------|-------------------------------------------------|
E|-5-------5---5-------5---5-------5---5-------3---|-5-------5---5-------5---5-------5---3-------0---|
B|-------------------------------------------------|-------------------------------------------------|

  [B-Section 2]
   1 - 2 - 3 - 1 - 2 - 3 - 1 - 2 - 3 - 1 - 2 - 3 -   1 - 2 - 3 - 1 - 2 - 3 - 1 - 2 - 3 - 1 - 2 - 3 -
G|-------------------------------------------------|-------------------------------------------------|
D|-------------------------------------------------|-------------------------------------------------|
A|-7-------7-----------7---------------------------|-5-------5-----------5---------------------------|
E|-0-----------0-----------------------------------|---------------------------------5---------------|
B|-------------------------------------------------|-------------------------------------------------|


   1 - 2 - 3 - 1 - 2 - 3 - 1 - 2 - 3 - 1 - 2 - 3 -   1 - 2 - 3 - 1 - 2 - 3 - 1 - 2 - 3 - 1 - 2 - 3 -
G|-------------------------------------------------|-------------------------------------------------|
D|-------------------------------------9-----------|-------------------------------------------------|
A|-7-------7-----------7-------------------7-------|-3-------------------------------5---------------|
E|-------------0-------------------------------7---|---------------------3---------------------------|
B|-------------------------------------------------|-------------------------------------------------|


   1 - 2 - 3 - 1 - 2 - 3 - 1 - 2 - 3 - 1 - 2 - 3 -   1 - 2 - 3 - 1 - 2 - 3 - 1 - 2 - 3 - 1 - 2 - 3 -
G|-------------------------------------------------|-------------------------------------------------|
D|-------------------------------------------------|-------------------------------------------------|
A|-------------------------------------------------|-------------------------------------------------|
E|-5-------5---5-------5---5-------5---5-------3---|-5-------5---5-------5---5-------5---5-------3---|
B|-------------------------------------------------|-------------------------------------------------|


   1 - 2 - 3 - 1 - 2 - 3 - 1 - 2 - 3 - 1 - 2 - 3 -   1 - 2 - 3 - 1 - 2 - 3 - 1 - 2 - 3 - 1 - 2 - 3 -
G|-------------------------------------------------|-------------------------------------------------|
D|-------------------------------------------------|-------------------------------------------------|
A|-------------------------------------------------|-------------------------------------------------|
E|-5-------5---5-------5---5-------5---3-------4---|-5-------5---5-------5---5-------5---5-------5---|
B|-------------------------------------------------|-------------------------------------------------|

  [Chorus 2]
   1 - 2 - 3 - 1 - 2 - 3 - 1 - 2 - 3 - 1 - 2 - 3 -   1 - 2 - 3 - 1 - 2 - 3 - 1 - 2 - 3 - 1 - 2 - 3 -
G|-------------------------------------------------|-------------------------------------------------|
D|-------------------------------------------------|-------------------------------------------------|
A|-------------------------------------------------|---------------------5-----------5---------------|
E|---------------------5-----------5---------------|-------------------------------------------------|
B|-------------------------------------------------|-------------------------------------------------|


   1 - 2 - 3 - 1 - 2 - 3 - 1 - 2 - 3 - 1 - 2 - 3 -   1 - 2 - 3 - 1 - 2 - 3 - 1 - 2 - 3 - 1 - 2 - 3 -
G|-------------------------------------------------|-------------------------------------------------|
D|-------------------------------------------------|-2---4---2---------------------------------------|
A|-3-----------3-----------5-----------5-----------|-------------3-----------------------------------|
E|-------------------------------------------------|---------------------5-----------5---------------|
B|-------------------------------------------------|-------------------------------------------------|


   1 - 2 - 3 - 1 - 2 - 3 - 1 - 2 - 3 - 1 - 2 - 3 -   1 - 2 - 3 - 1 - 2 - 3 - 1 - 2 - 3 - 1 - 2 - 3 -
G|-------------------------------------------------|-------------------------------------------------|
D|-------------------------------------------------|-------------------------------------------------|
A|-------------------------------------------------|---------------------5-----------5---------------|
E|---------------------5-----------5---------------|-------------------------------------------------|
B|-------------------------------------------------|-------------------------------------------------|


   1 - 2 - 3 - 1 - 2 - 3 - 1 - 2 - 3 - 1 - 2 - 3 -   1 - 2 - 3 - 1 - 2 - 3 - 1 - 2 - 3 - 1 - 2 - 3 -
G|-------------------------------------------------|-------------------------------------------------|
D|-------------------------------------------------|-2---4---2---------------------------------------|
A|-3-----------3-----------5-----------5-----------|-------------3-----------------------------------|
E|-------------------------------------------------|---------------------5-----------3---------------|
B|-------------------------------------------------|-------------------------------------------------|


   1 - 2 - 3 - 1 - 2 - 3 - 1 - 2 - 3 - 1 - 2 - 3 -   1 - 2 - 3 - 1 - 2 - 3 - 1 - 2 - 3 - 1 - 2 - 3 -
G|-------------------------------------------------|-------------------------------------------------|
D|-------------------------------------------------|-------------------------------------------------|
A|-5-----------------------------------------------|-------------------------------------------------|
E|-------------------------------------------------|-------------------------------------------------|
B|-------------------------------------------------|-------------------------------------------------|


   1 - 2 - 3 - 1 - 2 - 3 - 1 - 2 - 3 - 1 - 2 - 3 -   1 - 2 - 3 - 1 - 2 - 3 - 1 - 2 - 3 - 1 - 2 - 3 -
G|-------------------------------------------------|-------------------------------------------------|
D|-------------------------------------------------|-------------------------------------------------|
A|-------------------------------------------------|-------------------------------------12\\\\\\\\\\|
E|-------------------------------------------------|-------------------------------------------------|
B|-------------------------------------------------|-------------------------------------------------|

  [Solo 1]
   1 - 2 - 3 - 1 - 2 - 3 - 1 - 2 - 3 - 1 - 2 - 3 -   1 - 2 - 3 - 1 - 2 - 3 - 1 - 2 - 3 - 1 - 2 - 3 -
G|-------------------------------------------------|-------------------------------------------------|
D|-------------------------------------------------|-------------------------------------------------|
A|-------------------------------------------------|-------------------------------------------------|
E|-5-------5---3-------5-----------5---3-----------|-5-------5---5-------5---3-----------4-----------|
B|-------------------------------------------------|-------------------------------------------------|


   1 - 2 - 3 - 1 - 2 - 3 - 1 - 2 - 3 - 1 - 2 - 3 -   1 - 2 - 3 - 1 - 2 - 3 - 1 - 2 - 3 - 1 - 2 - 3 -
G|-------------------------------------------------|-------------------------------------------------|
D|-------------------------------------------------|-------------------------------------------------|
A|-------------------------------------------------|-------------------------3-----------2-----------|
E|-5-----------5-------0---5-----------5-------0---|-5-----------5-------0---------------------------|
B|-------------------------------------------------|-------------------------------------------------|


   1 - 2 - 3 - 1 - 2 - 3 - 1 - 2 - 3 - 1 - 2 - 3 -   1 - 2 - 3 - 1 - 2 - 3 - 1 - 2 - 3 - 1 - 2 - 3 -
G|-------------------------------------------------|-------------------------------------------------|
D|-------------------------------------------------|-------------------------------------------------|
A|-------------------------------------------------|-------------------------------------------------|
E|-5-----------5-------0---5-----------5-------0---|-5-------0---2-----------3-----------4-----------|
B|-------------------------------------------------|-------------------------------------------------|


   1 - 2 - 3 - 1 - 2 - 3 - 1 - 2 - 3 - 1 - 2 - 3 -   1 - 2 - 3 - 1 - 2 - 3 - 1 - 2 - 3 - 1 - 2 - 3 -
G|-------------------------------------------------|-------------------------------------------------|
D|-------------------------------------------------|-------------7-----------7---5-------------------|
A|-------------------------------------------------|-5---7---------------------------7---5-----------|
E|-5-----------5-------0---5-----------5-----------|---------5---------------------------------------|
B|-------------------------------------------------|-------------------------------------------------|


   1 - 2 - 3 - 1 - 2 - 3 - 1 - 2 - 3 - 1 - 2 - 3 -   1 - 2 - 3 - 1 - 2 - 3 - 1 - 2 - 3 - 1 - 2 - 3 -
G|-------------------------------------------------|-------------------------------------------------|
D|-------------------------------------------------|-------------------------------------------------|
A|-------------------------------------------------|-------------------------------------------------|
E|-5-----------5-------0---5-----------5-------0---|-5-----------5-----------3-----------4-----------|
B|-------------------------------------------------|-------------------------------------------------|


   1 - 2 - 3 - 1 - 2 - 3 - 1 - 2 - 3 - 1 - 2 - 3 -   1 - 2 - 3 - 1 - 2 - 3 - 1 - 2 - 3 - 1 - 2 - 3 -
G|-------------------------------------------------|-------------------------------------------------|
D|-------------------------------------------------|-------------------------------------------------|
A|-------------------------------------------------|-------------------------3-----------2-----------|
E|-5-----------5-------0---5-----------5-------0---|-5-----------5-------0---------------------------|
B|-------------------------------------------------|-------------------------------------------------|


   1 - 2 - 3 - 1 - 2 - 3 - 1 - 2 - 3 - 1 - 2 - 3 -   1 - 2 - 3 - 1 - 2 - 3 - 1 - 2 - 3 - 1 - 2 - 3 -
G|-------------------------------------------------|-------------------------------------------------|
D|-------------------------------------------------|-------------------------------------------------|
A|-------------------------------------------------|-------------------------------------------------|
E|-5-----------5-------0---5-----------5-------0---|-5-----------5-------0---3-----------4-----------|
B|-------------------------------------------------|-------------------------------------------------|


   1 - 2 - 3 - 1 - 2 - 3 - 1 - 2 - 3 - 1 - 2 - 3 -   1 - 2 - 3 - 1 - 2 - 3 - 1 - 2 - 3 - 1 - 2 - 3 -
G|-------------------------------------------------|-------------------------------------------------|
D|-------------------------------------------------|-------------7-----------7-----------7---5-------|
A|-------------------------------------------------|-5---7---------------------------------------7---|
E|-5-----------5-------0---5-----------5-----------|---------5---------------------------------------|
B|-------------------------------------------------|-------------------------------------------------|


   1 - 2 - 3 - 1 - 2 - 3 - 1 - 2 - 3 - 1 - 2 - 3 -   1 - 2 - 3 - 1 - 2 - 3 - 1 - 2 - 3 - 1 - 2 - 3 -
G|-------------------------------------------------|-------------------------------------------------|
D|---------------------7---------------5-----------|-------------------------------------------------|
A|-------------7---------------------------7---5---|-------------------------------------------------|
E|-5-----------------------------------------------|-5-----------2-----------3-----------4-----------|
B|-------------------------------------------------|-------------------------------------------------|


   1 - 2 - 3 - 1 - 2 - 3 - 1 - 2 - 3 - 1 - 2 - 3 -   1 - 2 - 3 - 1 - 2 - 3 - 1 - 2 - 3 - 1 - 2 - 3 -
G|-------------------------------------------------|-------------------------------------------------|
D|-------------------------------------------------|-------------------------------------------------|
A|-------------------------------------------------|-------------------------------------------------|
E|-5-----------5-------0---5-----------5-------5---|-5-----------5-------5---8-----------7-------0---|
B|-------------------------------------------------|-------------------------------------------------|


   1 - 2 - 3 - 1 - 2 - 3 - 1 - 2 - 3 - 1 - 2 - 3 -   1 - 2 - 3 - 1 - 2 - 3 - 1 - 2 - 3 - 1 - 2 - 3 -
G|-------------------------------------------------|-------------------------------------------------|
D|---------------------7---------------5-----------|-------------------------------------------------|
A|-------------7---------------------------7---5---|-------------------------------------------------|
E|-5-----------------------------------------------|-5-----------2-----------3-----------4-----------|
B|-------------------------------------------------|-------------------------------------------------|


   1 - 2 - 3 - 1 - 2 - 3 - 1 - 2 - 3 - 1 - 2 - 3 -   1 - 2 - 3 - 1 - 2 - 3 - 1 - 2 - 3 - 1 - 2 - 3 -
G|-------------------------------------------------|-------------------------------------------------|
D|-------------------------------------------------|-------------------------------------------------|
A|-------------------------------------------------|-------------------------------------3-------2---|
E|-5-----------5-------3---5-----------5-----------|-5-----------5-------5---5-----------------------|
B|-------------------------------------------------|-------------------------------------------------|


   1 - 2 - 3 - 1 - 2 - 3 - 1 - 2 - 3 - 1 - 2 - 3 -   1 - 2 - 3 - 1 - 2 - 3 - 1 - 2 - 3 - 1 - 2 - 3 -
G|-------------------------------------------------|-------------------------------------------------|
D|---------------------7---------------5-----------|-------------------------------------------------|
A|-------------7---------------------------7---5---|-------------4-----------5-----------6-------7---|
E|-5-----------------------------------------------|-5-----------------------------------------------|
B|-------------------------------------------------|-------------------------------------------------|


   1 - 2 - 3 - 1 - 2 - 3 - 1 - 2 - 3 - 1 - 2 - 3 -   1 - 2 - 3 - 1 - 2 - 3 - 1 - 2 - 3 - 1 - 2 - 3 -
G|-------------------------------------------------|-------------------------------------------------|
D|---------------------7---------------5-----------|-7-----------4-----------5-----------6-------7---|
A|-------------7---------------------------7---5---|-------------------------------------------------|
E|-5-----------------------------------------------|-------------------------------------------------|
B|-------------------------------------------------|-------------------------------------------------|


   1 - 2 - 3 - 1 - 2 - 3 - 1 - 2 - 3 - 1 - 2 - 3 -   1 - 2 - 3 - 1 - 2 - 3 - 1 - 2 - 3 - 1 - 2 - 3 -
G|-------------------------------------------------|-------------------------------------------------|
D|---------------------7---------------5-----------|---------------------7---------------5-----------|
A|-------------7---------------------------7---5---|-------------7---------------------------7---5---|
E|-5-----------------------------------------------|-5-----------------------------------------------|
B|-------------------------------------------------|-------------------------------------------------|


   1 - 2 - 3 - 1 - 2 - 3 - 1 - 2 - 3 - 1 - 2 - 3 -   1 - 2 - 3 - 1 - 2 - 3 - 1 - 2 - 3 - 1 - 2 - 3 -
G|-------------------------------------------------|-------------------------5-----------------------|
D|-------------------------------------------------|-----------------------------7---5---------------|
A|-------------------------3-------3---------------|-5-----------------------------------7---5---3---|
E|-5-------5---------------------------------------|-------------------------------------------------|
B|-------------------------------------------------|-------------------------------------------------|


   1 - 2 - 3 - 1 - 2 - 3 - 1 - 2 - 3 - 1 - 2 - 3 -   1 - 2 - 3 - 1 - 2 - 3 - 1 - 2 - 3 - 1 - 2 - 3 -
G|-------------------------------------------------|-------------------------------------------------|
D|-------------------------------------------------|-------------------------------------------------|
A|-------------------------------------------------|-------------------------------------------------|
E|-5-----------------------------------------------|-------------------------------------------------|
B|-------------------------------------------------|-------------------------------------------------|


   1 - 2 - 3 - 1 - 2 - 3 - 1 - 2 - 3 - 1 - 2 - 3 -   1 - 2 - 3 - 1 - 2 - 3 - 1 - 2 - 3 - 1 - 2 - 3 -
G|-------------------------------------------------|-------------------------------------------------|
D|-------------------------------------------------|-------------------------------------------------|
A|-------------------------------------------------|-------------------------------------------------|
E|-------------------------------------------------|-------------------------------------------------|
B|-------------------------------------------------|-------------------------------------------------|

  [Interlude]
   1 - 2 - 3 - 1 - 2 - 3 - 1 - 2 - 3 - 1 - 2 - 3 -   1 - 2 - 3 - 1 - 2 - 3 - 1 - 2 - 3 - 1 - 2 - 3 -
G|-------------------------------------------------|-------------------------------------------------|
D|-------------------------------------------------|-------------------------------------------------|
A|-------------------------------------------------|-------------------------------------------------|
E|-5-------5---5-------5---5---5---5---5-----------|-5-------5---5-------5---5---5---5---5-----------|
B|-------------------------------------------------|-------------------------------------------------|


   1 - 2 - 3 - 1 - 2 - 3 - 1 - 2 - 3 - 1 - 2 - 3 -   1 - 2 - 3 - 1 - 2 - 3 - 1 - 2 - 3 - 1 - 2 - 3 -
G|-------------------------------------------------|-------------------------------------------------|
D|-------------------------------------------------|-------------------------------------------------|
A|-------------------------------------------------|-------------------------------------------------|
E|-5-------5---5-------5---5---5---5---5-----------|-5-------5---5-------5---5---5---5---5-----------|
B|-------------------------------------------------|-------------------------------------------------|


   1 - 2 - 3 - 1 - 2 - 3 - 1 - 2 - 3 - 1 - 2 - 3 -   1 - 2 - 3 - 1 - 2 - 3 - 1 - 2 - 3 - 1 - 2 - 3 -
G|-------------------------------------------------|-------------------------------------------------|
D|-------------------------------------------------|-------------------------------------------------|
A|-------------------------------------------------|-------------------------------------------------|
E|-5-------5---5-------5---5---5---5---5-----------|-5-------5---5-------5---5---5---5---5-----------|
B|-------------------------------------------------|-------------------------------------------------|


   1 - 2 - 3 - 1 - 2 - 3 - 1 - 2 - 3 - 1 - 2 - 3 -   1 - 2 - 3 - 1 - 2 - 3 - 1 - 2 - 3 - 1 - 2 - 3 -
G|-------------------------------------------------|-------------------------------------------------|
D|-------------------------------------------------|-------------------------------------------------|
A|-------------------------------------------------|-------------------------------------------------|
E|-5-------5---5-------5---5---5---5---5-----------|-5-------5---5-------5---5---5---5---5-----------|
B|-------------------------------------------------|-------------------------------------------------|


   1 - 2 - 3 - 1 - 2 - 3 - 1 - 2 - 3 - 1 - 2 - 3 -   1 - 2 - 3 - 1 - 2 - 3 - 1 - 2 - 3 - 1 - 2 - 3 -
G|-------------------------------------------------|-------------------------------------------------|
D|-------------------------------------------------|-------------------------------------------------|
A|-------------------------------------------------|-------------------------------------------------|
E|-5-------5---5-------5---5---5---5---5-----------|-5-------5---5-------5---5---5---5---5-----------|
B|-------------------------------------------------|-------------------------------------------------|


   1 - 2 - 3 - 1 - 2 - 3 - 1 - 2 - 3 - 1 - 2 - 3 -   1 - 2 - 3 - 1 - 2 - 3 - 1 - 2 - 3 - 1 - 2 - 3 -
G|-------------------------------------------------|-------------------------------------------------|
D|-------------------------------------------------|-------------------------------------------------|
A|-------------------------------------------------|-------------------------------------------------|
E|-5-------5---5-------5---5---5---5---5-----------|-5-------5---5-------5---5---5---5---5-----------|
B|-------------------------------------------------|-------------------------------------------------|


   1 - 2 - 3 - 1 - 2 - 3 - 1 - 2 - 3 - 1 - 2 - 3 -   1 - 2 - 3 - 1 - 2 - 3 - 1 - 2 - 3 - 1 - 2 - 3 -
G|-------------------------------------------------|-------------------------------------------------|
D|-------------------------------------------------|-------------------------------------------------|
A|-------------------------------------------------|-------------------------------------------------|
E|-5-------5---5-------5---5---5---5---5-----------|-5-------5---5-------5---5---5---5---5-----------|
B|-------------------------------------------------|-------------------------------------------------|


   1 - 2 - 3 - 1 - 2 - 3 - 1 - 2 - 3 - 1 - 2 - 3 -   1 - 2 - 3 - 1 - 2 - 3 - 1 - 2 - 3 - 1 - 2 - 3 -
G|-------------------------------------------------|-------------------------------------------------|
D|-------------------------------------------------|-------------------------------------------------|
A|-------------------------------------------------|-------------------------------------------------|
E|-5-------5---5-------5---5---5---5---5-----------|-5-------5---5-------5---5---5---5---5---5---5---|
B|-------------------------------------------------|-------------------------------------------------|

  [Bridge]
   1 - 2 - 3 - 1 - 2 - 3 - 1 - 2 - 3 - 1 - 2 - 3 -   1 - 2 - 3 - 1 - 2 - 3 - 1 - 2 - 3 - 1 - 2 - 3 -
G|-------------------------------------------------|-------------------------------------------------|
D|-------------------------------------------------|-------------------------------------------------|
A|-------------------------------------------------|-------------------------------------------------|
E|-6-----------------------------------------------|-5-----------------------------------------------|
B|-------------------------------------------------|-------------------------------------------------|


   1 - 2 - 3 - 1 - 2 - 3 - 1 - 2 - 3 - 1 - 2 - 3 -   1 - 2 - 3 - 1 - 2 - 3 - 1 - 2 - 3 - 1 - 2 - 3 -
G|-------------------------------------------------|-------------------------------------------------|
D|-------------------------------------------------|-------------------------------------------------|
A|-------------------------------------------------|-------------------------------------------------|
E|-3-----------------------------------------------|-5-----------------------------------------------|
B|-------------------------------------------------|-------------------------------------------------|


   1 - 2 - 3 - 1 - 2 - 3 - 1 - 2 - 3 - 1 - 2 - 3 -   1 - 2 - 3 - 1 - 2 - 3 - 1 - 2 - 3 - 1 - 2 - 3 -
G|-------------------------------------------------|-------------------------------------------------|
D|-------------------------------------------------|-------------------------------------------------|
A|-------------------------------------------------|-------------------------------------------------|
E|-6-----------------------------------------------|-5-----------------------3-----------------------|
B|-------------------------------------------------|-------------------------------------------------|


   1 - 2 - 3 - 1 - 2 - 3 - 1 - 2 - 3 - 1 - 2 - 3 -   1 - 2 - 3 - 1 - 2 - 3 - 1 - 2 - 3 - 1 - 2 - 3 -
G|-------------------------------------------------|-------------------------------------------------|
D|-------------------------------------------------|-------------------------------------------------|
A|-------------------------------------------------|-------------------------------------------------|
E|-5-----------------------------------------------|-------------------------------------------------|
B|-------------------------------------------------|-------------------------------------------------|


   1 - 2 - 3 - 1 - 2 - 3 - 1 - 2 - 3 - 1 - 2 - 3 -   1 - 2 - 3 - 1 - 2 - 3 - 1 - 2 - 3 - 1 - 2 - 3 -
G|-------------------------------------------------|-------------------------------------------------|
D|-------------------------------------------------|-------------------------------------------------|
A|-------------------------------------------------|-------------------------------------------------|
E|-3-----------------------------------------------|-1-----------------------------------------------|
B|-------------------------------------------------|-------------------------------------------------|


   1 - 2 - 3 - 1 - 2 - 3 - 1 - 2 - 3 - 1 - 2 - 3 -   1 - 2 - 3 - 1 - 2 - 3 - 1 - 2 - 3 - 1 - 2 - 3 -
G|-------------------------------------------------|-------------------------------------------------|
D|-------------------------------------------------|-------------------------------------------------|
A|-------------------------------------------------|{5}----------------------------------------------|
E|-0-----------------------------------------------|-------------------------------------------------|
B|-------------------------------------------------|-3-----------------------------------------------|


   1 - 2 - 3 - 1 - 2 - 3 - 1 - 2 - 3 - 1 - 2 - 3 -   1 - 2 - 3 - 1 - 2 - 3 - 1 - 2 - 3 - 1 - 2 - 3 -
G|-------------------------------------------------|-------------------------------------------------|
D|-------------------------------------------------|-------------------------------------------------|
A|{3}----------------------------------------------|-------------------------------------------------|
E|-------------------------------------------------|-6-----------------------------------------------|
B|-1-----------------------------------------------|-------------------------------------------------|


   1 - 2 - 3 - 1 - 2 - 3 - 1 - 2 - 3 - 1 - 2 - 3 -   1 - 2 - 3 - 1 - 2 - 3 - 1 - 2 - 3 - 1 - 2 - 3 -
G|-------------------------------------------------|-------------------------------------------------|
D|-------------------------------------------------|-------------------------------------------------|
A|-------------------------------------------------|-------------------------------------------------|
E|-5-----------------------------------------------|-------------------------------------------------|
B|-------------------------------------------------|-------------------------------------------------|


   1 - 2 - 3 - 1 - 2 - 3 - 1 - 2 - 3 - 1 - 2 - 3 -   1 - 2 - 3 - 1 - 2 - 3 - 1 - 2 - 3 - 1 - 2 - 3 -
G|-------------------------------------------------|-------------------------------------------------|
D|-------------------------------------------------|-------------------------------------------------|
A|-------------------------------------------------|-------------------------------------------------|
E|-7-----------------------7-------7---7-----------|-7-------7---7-----------7-----------7-------7---|
B|-------------------------------------------------|-------------------------------------------------|


   1 - 2 - 3 - 1 - 2 - 3 - 1 - 2 - 3 - 1 - 2 - 3 -   1 - 2 - 3 - 1 - 2 - 3 - 1 - 2 - 3 - 1 - 2 - 3 -
G|-------------------------------------------------|-------------------------------------------------|
D|-------------------------------------------------|-------------------------------------------------|
A|-------------------------------------------------|-------------------------------------------------|
E|-7-----------7-----------7-----------7-------7---|-7-------7---7-----------7-----------7-----------|
B|-------------------------------------------------|-------------------------------------------------|


   1 - 2 - 3 - 1 - 2 - 3 - 1 - 2 - 3 - 1 - 2 - 3 -   1 - 2 - 3 - 1 - 2 - 3 - 1 - 2 - 3 - 1 - 2 - 3 -
G|-------------------------------------------------|-------------------------------------------------|
D|-------------------------------------------------|-------------------------------------------------|
A|-------------------------------------------------|-------------------------------------------------|
E|-5-----------5-------5---5-----------5-----------|-5-----------5-------5---5-----------5-----------|
B|-------------------------------------------------|-------------------------------------------------|


   1 - 2 - 3 - 1 - 2 - 3 - 1 - 2 - 3 - 1 - 2 - 3 -   1 - 2 - 3 - 1 - 2 - 3 - 1 - 2 - 3 - 1 - 2 - 3 -
G|-------------------------------------------------|-------------------------------------------------|
D|-------------------------------------------------|-------------------------------------------------|
A|-------------------------------------------------|-------------------------------------------------|
E|-5-----------5-------5---5-----------5-------5---|-5-----------5-------5---5///////////11--11--11--|
B|-------------------------------------------------|-------------------------------------------------|

 [Solo 2]
   1 - 2 - 3 - 1 - 2 - 3 - 1 - 2 - 3 - 1 - 2 - 3 -   1 - 2 - 3 - 1 - 2 - 3 - 1 - 2 - 3 - 1 - 2 - 3 -
G|-------------------------------------------------|-------------------------------------------------|
D|-------------------------------------------------|-------------------------------------------------|
A|-17\\\\\\\\\-------------------------------------|-------------------------------------------------|
E|-------------2-----------3-----------4-----------|-5-----------5-------5---3-----------4-----------|
B|-------------------------------------------------|-------------------------------------------------|


   1 - 2 - 3 - 1 - 2 - 3 - 1 - 2 - 3 - 1 - 2 - 3 -   1 - 2 - 3 - 1 - 2 - 3 - 1 - 2 - 3 - 1 - 2 - 3 -
G|-------------------------------------------------|-------------------------------------------------|
D|-------------------------------------------------|-------------------------------------------------|
A|-------------------------------------------------|-------------------------------------------------|
E|-5-----------5-------5---2-----------3-----------|-5-----------5-------5---3-----------4-----------|
B|-------------------------------------------------|-------------------------------------------------|


   1 - 2 - 3 - 1 - 2 - 3 - 1 - 2 - 3 - 1 - 2 - 3 -   1 - 2 - 3 - 1 - 2 - 3 - 1 - 2 - 3 - 1 - 2 - 3 -
G|-------------------------------------------------|-------------------------------------------------|
D|-------------------------------------------------|-------------------------------------------------|
A|-------------------------------------------------|-------------------------------------------------|
E|-5-----------5-------5---3-----------4-----------|-5-----------2-----------3-----------4-----------|
B|-------------------------------------------------|-------------------------------------------------|


   1 - 2 - 3 - 1 - 2 - 3 - 1 - 2 - 3 - 1 - 2 - 3 -   1 - 2 - 3 - 1 - 2 - 3 - 1 - 2 - 3 - 1 - 2 - 3 -
G|-------------------------------------------------|-------------------------------------------------|
D|-------------------------------------------------|-7-------5---------------------------------------|
A|-------------------------------------------------|-----------------7-------5-------3---------------|
E|-5-----------5-----------5-----------5-----------|-----------------------------------------5-------|
B|-------------------------------------------------|-------------------------------------------------|


   1 - 2 - 3 - 1 - 2 - 3 - 1 - 2 - 3 - 1 - 2 - 3 -   1 - 2 - 3 - 1 - 2 - 3 - 1 - 2 - 3 - 1 - 2 - 3 -
G|-------------------------------------------------|-------------------------------------------------|
D|-------------4-----------5-----------6-------7---|-------------------------------------------------|
A|-5-----------------------------------------------|-5-----------3-----------2-------3---------------|
E|-------------------------------------------------|-------------------------------------------------|
B|-------------------------------------------------|-------------------------------------------------|


   1 - 2 - 3 - 1 - 2 - 3 - 1 - 2 - 3 - 1 - 2 - 3 -   1 - 2 - 3 - 1 - 2 - 3 - 1 - 2 - 3 - 1 - 2 - 3 -
G|-------------------------------------------------|-------------------------------------------------|
D|-------------------------------------------------|-------------------------------------------------|
A|-------------------------------------------------|-------------------------------------------------|
E|-5-----------------------------------------------|-------------------------------------12\\\\\\\\\\|
B|-------------------------------------------------|-------------------------------------------------|


   1 - 2 - 3 - 1 - 2 - 3 - 1 - 2 - 3 - 1 - 2 - 3 -   1 - 2 - 3 - 1 - 2 - 3 - 1 - 2 - 3 - 1 - 2 - 3 -
G|-------------------------------------------------|-------------------------------------------------|
D|-------------4-----------5-----------7---5-------|-------------------------------------------------|
A|-5-------------------------------------------7---|-5-----------3-----------2-------3---------------|
E|-------------------------------------------------|-------------------------------------------------|
B|-------------------------------------------------|-------------------------------------------------|


   1 - 2 - 3 - 1 - 2 - 3 - 1 - 2 - 3 - 1 - 2 - 3 -   1 - 2 - 3 - 1 - 2 - 3 - 1 - 2 - 3 - 1 - 2 - 3 -
G|-------------------------------------------------|-------------------------------------------------|
D|-------------------------------------------------|-------------------------------------------------|
A|-------------------------------------------------|-------------------------------------------------|
E|-5-----------------------------------------------|-------------------------------------12\\\\\\\\\\|
B|-------------------------------------------------|-------------------------------------------------|


   1 - 2 - 3 - 1 - 2 - 3 - 1 - 2 - 3 - 1 - 2 - 3 -   1 - 2 - 3 - 1 - 2 - 3 - 1 - 2 - 3 - 1 - 2 - 3 -
G|-------------------------------------------------|-------------------------------------------------|
D|-------------------------------------------------|-------------------------------------------------|
A|---------------------7---------------------------|-5-------------------5---------------------------|
E|-0-----------------------------------------------|---------------------------------5---------------|
B|-------------------------------------------------|-------------------------------------------------|


   1 - 2 - 3 - 1 - 2 - 3 - 1 - 2 - 3 - 1 - 2 - 3 -   1 - 2 - 3 - 1 - 2 - 3 - 1 - 2 - 3 - 1 - 2 - 3 -
G|-------------------------------------------------|-------------------------------------------------|
D|-------------------------------------------------|---------5---------------------------------------|
A|-7-------------------7---------------------------|-3-----------3-------------------5---------------|
E|-------------0-----------------------------------|---------------------3---------------------------|
B|-------------------------------------------------|-------------------------------------------------|


   1 - 2 - 3 - 1 - 2 - 3 - 1 - 2 - 3 - 1 - 2 - 3 -   1 - 2 - 3 - 1 - 2 - 3 - 1 - 2 - 3 - 1 - 2 - 3 -
G|-------------------------------------------------|-------------------------------------------------|
D|-------------------------------------------------|-------------------------------------------------|
A|-------------------------------------------------|-------------------------------------------------|
E|-5-------5---5-------5---5-------5---5-------5---|-5-------5---5-------5---5-------2---3-------4---|
B|-------------------------------------------------|-------------------------------------------------|


   1 - 2 - 3 - 1 - 2 - 3 - 1 - 2 - 3 - 1 - 2 - 3 -   1 - 2 - 3 - 1 - 2 - 3 - 1 - 2 - 3 - 1 - 2 - 3 -
G|-------------------------------------------------|-------------------------------------------------|
D|-------------------------------------------------|-------------------------------------------------|
A|-------------------------------------------------|-------------------------------------3-------4---|
E|-5-------5---5-------5---5-------5---5-------5---|-5-------5---5-------5---5-------5---------------|
B|-------------------------------------------------|-------------------------------------------------|

  [Verse 3]
   1 - 2 - 3 - 1 - 2 - 3 - 1 - 2 - 3 - 1 - 2 - 3 -   1 - 2 - 3 - 1 - 2 - 3 - 1 - 2 - 3 - 1 - 2 - 3 -
G|-------------------------------------------------|-------------------------------------------------|
D|-------------4-------4---5-------5---7---5-------|-------------------------------------------------|
A|-5-------5-----------------------------------7---|-5-------5---3-------3---2-------3---------------|
E|-------------------------------------------------|-------------------------------------------------|
B|-------------------------------------------------|-------------------------------------------------|


   1 - 2 - 3 - 1 - 2 - 3 - 1 - 2 - 3 - 1 - 2 - 3 -   1 - 2 - 3 - 1 - 2 - 3 - 1 - 2 - 3 - 1 - 2 - 3 -
G|-------------------------------------------------|-------------------------------------------------|
D|-------------------------------------------------|-------------------------------------------------|
A|-------------------------------------------------|-------------------------------------3-------4---|
E|-5-------5---5-------5---5-------5---5-------5---|-5-------5---5-------5---5-------5---------------|
B|-------------------------------------------------|-------------------------------------------------|


   1 - 2 - 3 - 1 - 2 - 3 - 1 - 2 - 3 - 1 - 2 - 3 -   1 - 2 - 3 - 1 - 2 - 3 - 1 - 2 - 3 - 1 - 2 - 3 -
G|-------------------------------------------------|-------------------------------------------------|
D|-------------------------------------------------|-------------------------------------------------|
A|-5-------5---------------------------------------|-5-------5---3-------3---2-------3---------------|
E|-------------2-------2---3-------3---4-------5---|-------------------------------------------------|
B|-------------------------------------------------|-------------------------------------------------|


   1 - 2 - 3 - 1 - 2 - 3 - 1 - 2 - 3 - 1 - 2 - 3 -   1 - 2 - 3 - 1 - 2 - 3 - 1 - 2 - 3 - 1 - 2 - 3 -
G|-------------------------------------------------|-------------------------------------------------|
D|-------------------------------------------------|-------------------------------------------------|
A|-------------------------------------------------|-------------------------------------------------|
E|-5-------5---5-------5---5-------5---5-------5---|-5-------5---5-------5---5-------5---3-------0---|
B|-------------------------------------------------|-------------------------------------------------|

  [B-Section 3/Outro]
   1 - 2 - 3 - 1 - 2 - 3 - 1 - 2 - 3 - 1 - 2 - 3 -   1 - 2 - 3 - 1 - 2 - 3 - 1 - 2 - 3 - 1 - 2 - 3 -
G|-------------------------------------------------|-------------------------------------------------|
D|-------------------------------------------------|-------------------------------------------------|
A|-7-------7-----------7---------------------------|-5-------5-----------5---------------------------|
E|-------------0-----------------------------------|---------------------------------5---------------|
B|-------------------------------------------------|-------------------------------------------------|


   1 - 2 - 3 - 1 - 2 - 3 - 1 - 2 - 3 - 1 - 2 - 3 -   1 - 2 - 3 - 1 - 2 - 3 - 1 - 2 - 3 - 1 - 2 - 3 -
G|-------------------------------------4-----------|-------------------------------------------------|
D|-----------------------------------------2-------|-------------------------------------------------|
A|-7-------7-----------7-----------------------2---|-3-------------------------------5---------------|
E|-------------0-----------------------------------|---------------------3---------------------------|
B|-------------------------------------------------|-------------------------------------------------|


   1 - 2 - 3 - 1 - 2 - 3 - 1 - 2 - 3 - 1 - 2 - 3 -   1 - 2 - 3 - 1 - 2 - 3 - 1 - 2 - 3 - 1 - 2 - 3 -
G|-------------------------------------------------|-------------------------------------------------|
D|-------------------------------------------------|-------------------------------------------------|
A|-------------------------------------------------|-------------------------------------------------|
E|-5-------5---5-------5---5-------5---5-------3---|-5-------5---5-------5---5-------5---5-------5---|
B|-------------------------------------------------|-------------------------------------------------|


   1 - 2 - 3 - 1 - 2 - 3 - 1 - 2 - 3 - 1 - 2 - 3 -   1 - 2 - 3 - 1 - 2 - 3 - 1 - 2 - 3 - 1 - 2 - 3 -
G|-------------------------------------------------|-------------------------------------------------|
D|-------------------------------------------------|-------------------------------------------------|
A|-------------------------------------------------|-------------------------------------------------|
E|-5-------5---5-------5---5-------0---3-------4---|-5-------5---5-------5---5-------5---3-------0---|
B|-------------------------------------------------|-------------------------------------------------|


   1 - 2 - 3 - 1 - 2 - 3 - 1 - 2 - 3 - 1 - 2 - 3 -   1 - 2 - 3 - 1 - 2 - 3 - 1 - 2 - 3 - 1 - 2 - 3 -
G|-------------------------------------------------|-------------------------------------------------|
D|-------------------------------------------------|-------------------------------------------------|
A|-7-------7-----------7---------------------------|-5-------5-------5-------5-----------------------|
E|-------------0-----------------------------------|---------------------------------5---------------|
B|-------------------------------------------------|-------------------------------------------------|


   1 - 2 - 3 - 1 - 2 - 3 - 1 - 2 - 3 - 1 - 2 - 3 -   1 - 2 - 3 - 1 - 2 - 3 - 1 - 2 - 3 - 1 - 2 - 3 -
G|-------------------------------------------------|-------------------------------------------------|
D|-------------------------------------------------|-------------------------------------------------|
A|-7-------7-----------7---------------------------|-3-------3-------3---------------5---------------|
E|-------------0-----------------------------------|-------------------------3-----------------------|
B|-------------------------------------------------|-------------------------------------------------|


   1 - 2 - 3 - 1 - 2 - 3 - 1 - 2 - 3 - 1 - 2 - 3 -   1 - 2 - 3 - 1 - 2 - 3 - 1 - 2 - 3 - 1 - 2 - 3 -
G|-------------------------------------------------|-------------------------------------------------|
D|-------------------------------------------------|-------------------------------------------------|
A|-------------------------------------------------|-------------------------------------------------|
E|-5-------5---5-------5---5-------5---5-------3---|-5-------5---5-------5---5-------5---5-------4---|
B|-------------------------------------------------|-------------------------------------------------|


   1 - 2 - 3 - 1 - 2 - 3 - 1 - 2 - 3 - 1 - 2 - 3 -
G|-------------------------------------------------|
D|-------------------------------------------------|
A|-------------------------------------------------|
E|-5-------5---5-------5---5-------3---3-------5---|
B|-------------------------------------------------|



*****************************************
| /   Slide up
| \   Slide down
|{3}  Octave note (4 string players only)
*****************************************

            
            
Suggest correction
Creating personal tab
Creating personal tab
You can edit any tab online and save it as your Personal.

You can edit, replace or remove any tab part or add personal notes – all changes will be seen only by you.

Personal tabs can be accessed anytime from any device, even offline.
Learn more »
Give kudos to tab author, rate the tab!
1 2 3 4 5
comments
print report bad tab
guest
You may want to rate the tab now too:
select rating
Wanna post a correction for this tab? Suggest correction