Oops, an error
Loading. Please wait.

Fossa bass

238 views 1 this week
no commentswrite comment
1 2 3 4 5
3 more votes to show rating
add to favorites
×
Save as Personal and add changes to this tab that will be seen only by you. Learn more ›
×
You can save this tab as Personal to edit and correct it or add notes. All changes will be seen only by you. Learn more »
launch autoscroll
font size
0
reset
guitar tuner
edit
Autoscroll
slow
fast
+/-
esc
set tempo
stop
Boston Manor - Fossa

Tabbed by: Ash
email: burdickash@gmail.com

Tuning: Drop D
Time Signature: 4|4

Verse I (come in at "I've got the answers")
G|-----------------|-----------------|-----------------|-----------------|
D|-----------------|-----------------|-----------------|-----------------|
A|-----------------|-----------------|-----------------|-----------------|
D|-8-----8-----8---|-----------------|-----------------|-------------(4)-|

G|-----------------|-----------------|-----------------|-----------------|
D|-----------------|-----------------|-----------------|-----------------|
A|-----------------|-----------------|-----------------|-----------------|
D|-8-----8-----8---|-----------------|-----------------|-4~------------/-|

G|-----------------|-----------------|-----------------|-----------------|
D|-----------------|-----------------|-----------------|-----------------|
A|-----------------|-----------------|-----------------|-----------------|
D|-8-----8-----8---|-----------------|-----------------|-------------(4)-|

G|-----------------|-----------------|-----------------|-----------------|
D|-----------------|-----------------|-----------------|-----------------|
A|-----------------|-----------------|-----------------|-----------------|
D|-8-----8-----8~--|-----------------|-6~--------------|-4~--------------|

Pre-Chorus
G|-----------------|-----------------|-----------------|-----------------|
D|-----------------|-----------------|-----------------|-----------------|
A|-----------------|-----------------|-----------------|-----------------| x 2
D|-8-8-8-8-8-8-8-8-|-8-8-8-8-8-8-8-8-|-6-6-6-6-6-6-6-6-|-4-4-4-4-4-4-4-4-|

G|-----------------|-----------------|-----------------|-----------------|
D|-----------------|-----------------|-----------------|-----------------|
A|-----------------|-----------------|-----------------|-----------------|
D|-8~--------------|-----------------|-----------------|-----------------|

Chorus
G|-----------------|-----------------|-----------------|-----------------|
D|-----------------|-----------------|-----------------|-----------------|
A|-----------------|-4-4-4-4-4-4-4-4-|-----------------|-----------------|
D|-8-8-8-8-8-8-8-8-|-----------------|-4-4-4-4-4-4-4-4-|-4-4-4-4-4-4-4-4-|

G|-----------------|-----------------|-----------------|-----------------|
D|-----------------|-----------------|-----------------|-----------------|
A|-----------------|-----------------|-----------------|-----------------|
D|-8-8-8-8-8-8-8-8-|-6-6-6-6-6-6-6-6-|-4-4-4-4-4-4-4-4-|-4-4-4-4-4-4-4-4-|

G|-----------------|-----------------|-----------------|-----------------|
D|-----------------|-----------------|-----------------|-----------------|
A|-----------------|-4-4-4-4-4-4-4-4-|-----------------|-----------------|
D|-8-8-8-8-8-8-8-8-|-----------------|-4-4-4-4-4-4-4-4-|-4-4-4-4-4-4-4-4-|

G|-----------------|-----------------|-----------------|-----------------|
D|-----------------|-----------------|-----------------|-----------------|
A|-----------------|-----------------|-----------------|-----------------|
D|-8-8-8-8-8-8-8-8-|-6-6-6-6-6-6-6-6-|-4-4-4-4-4-4-4-4-|-4---------------|

Post-Chorus
G|-----------------|-----------------|-----------------|-----------------|
D|-----------------|-----------------|-----------------|-----------------|
A|-----------------|-----------------|-----------------|-----------------|
D|-8~--------------|-----------------|-----------------|-----------------|

Verse II
G|-----------------|-----------------|-----------------|-----------------|
D|-4-4-4-4-4-4-4-4-|-4-4-4-4-4-4-4-4-|-1-1-1-1-1-1-1-1-|-1-1-1-1-1-1-1-1-|
A|-----------------|-----------------|-----------------|-----------------|
D|-----------------|-----------------|-----------------|-----------------|

G|-----------------|-----------------|-----------------|-----------------|
D|-----------------|-----------------|-----------------|-----------------|
A|-1-1-1-1-1-1-1-1-|-1-1-1-1-1-1-1-1-|-1-1-1-1-1-1-1-1-|-1-1-1-1-1-1-1-1-|
D|-----------------|-----------------|-----------------|-----------------|

G|-----------------|-----------------|-----------------|-----------------|
D|-4-4-4-4-4-4-4-4-|-4-4-4-4-4-4-4-4-|-1-1-1-1-1-1-1-1-|-1-1-1-1-1-1-1-1-|
A|-----------------|-----------------|-----------------|-----------------|
D|-----------------|-----------------|-----------------|-----------------|

Pre-Chorus II
G|-----------------|-----------------|-----------------|-----------------|
D|-----------------|-----------------|-----------------|-----------------|
A|-----------------|-----------------|-----------------|-----------------|
D|-8~--------------|-----------------|-----------------|-----------------|

G|-----------------|-----------------|-----------------|-----------------|
D|-----------------|-----------------|-----------------|-----------------|
A|-----------------|-----------------|-----------------|-----------------|
D|-----------------|-----------------|-----------------|-----------------|

G|-----------------|-----------------|-----------------|-----------------|
D|-----------------|-----------------|-----------------|-----------------|
A|-----------------|-----------------|-----------------|-----------------| x 2
D|-8-----8------8--|-----8---8---8---|-6------6-----6--|-----4---4---4---|

Chorus II
G|-----------------|-----------------|-----------------|-----------------|
D|-----------------|-----------------|-----------------|-----------------|
A|-----------------|-4-4-4-4-4-4-4-4-|-----------------|-----------------|
D|-8-8-8-8-8-8-8-8-|-----------------|-4-4-4-4-4-4-4-4-|-4-4-4-4-4-4-4-4-|

G|-----------------|-----------------|-----------------|-----------------|
D|-----------------|-----------------|-----------------|-----------------|
A|-----------------|-----------------|-----------------|-----------------|
D|-8-8-8-8-8-8-8-8-|-6-6-6-6-6-6-6-6-|-4-4-4-4-4-4-4-4-|-4-4-4-4-4-4-4-4-|

G|-----------------|-----------------|-----------------|-----------------|
D|-----------------|-----------------|-----------------|-----------------|
A|-----------------|-4-4-4-4-4-4-4-4-|-----------------|-----------------|
D|-8-8-8-8-8-8-8-8-|-----------------|-4-4-4-4-4-4-4-4-|-4-4-4-4-4-4-4-4-|

G|-----------------|-----------------|-----------------|-----------------|
D|-----------------|-----------------|-----------------|-----------------|
A|-----------------|-----------------|-----------------|-----------------|
D|-8-8-8-8-8-8-8-8-|-6-6-6-6-6-6-6-6-|-4-4-4-4-4-4-4-4-|-4-4-4-4-4-4-4-4-|

Bridge
G|-----------------|-----------------|-----------------|-----------------|
D|-----------------|-----------------|-----------------|-----------------|
A|-----------------|-----------------|-----------------|-----------------|
D|-4---4---4---4---|-4---4---4---4---|-6---6---6---6---|-6---6---6---6---|

G|-----------------|-----------------|-----------------|-----------------|
D|-----------------|-----------------|-----------------|-----------------|
A|-----------------|-----------------|-4---4---4---4---|-4---4---4---4---|
D|-8---8---8---8---|-8---8---8---8---|-----------------|-----------------|

G|-----------------|-----------------|-----------------|-----------------|
D|-----------------|-----------------|-----------------|-----------------|
A|-----------------|-----------------|-----------------|-----------------|
D|-4---4---4---4---|-4---4---4---4---|-6---6---6---6---|-6---6---6---6---|

G|-----------------|-----------------|-----------------|-----------------|
D|-----------------|-----------------|-----------------|-----------------|
A|-----------------|-----------------|-----------------|-----------------|
D|-7---7---7---7---|-7---7---7---7---|-8---8---8---8---|-6---6---6---6---|

Post-Chorus III

Post-Chorus
G|-----------------|-----------------|-----------------|-----------------|
D|-----------------|-----------------|-----------------|-----------------|
A|-----------------|-----------------|-----------------|-----------------|
D|-8~--------------|-----------------|-----------------|-----------------|

Guitar Solo
G|-----------------|-----------------|-----------------|-----------------|
D|-----------------|-----------------|-----------------|-----------------|
A|-----------------|-4-4-4-4-4-4-4-4-|-----------------|-----------------|
D|-8-8-8-8-8-8-8-8-|-----------------|-4-4-4-4-4-4-4-4-|-4-4-4-4-4-4-4-4-|

G|-----------------|-----------------|-----------------|-----------------|
D|-----------------|-----------------|-----------------|-----------------|
A|-----------------|-----------------|-----------------|-----------------|
D|-8-8-8-8-8-8-8-8-|-6-6-6-6-6-6-6-6-|-4-4-4-4-4-4-4-4-|-4-4-4-4-4-4-4-4-|

G|-----------------|-----------------|-----------------|-----------------|
D|-----------------|-----------------|-----------------|-----------------|
A|-----------------|-4-4-4-4-4-4-4-4-|-----------------|-----------------|
D|-8-8-8-8-8-8-8-8-|-----------------|-4-4-4-4-4-4-4-4-|-4-4-4-4-4-4-4-4-|

G|-----------------|-----------------|-----------------|-----------------|
D|-----------------|-----------------|-----------------|-----------------|
A|-----------------|-----------------|-----------------|-----------------|
D|-8-8-8-8-8-8-8-8-|-6-6-6-6-6-6-6-6-|-4-4-4-4-4-4-4-4-|-4-4-4-4-4-4-4-4-|

Outro
G|-----------------|-----------------|-----------------|-----------------|
D|-----------------|-----------------|-----------------|-----------------|
A|-4---4---4---4---|-4---4---4---4---|-4---4---4---4---|-4---4---4---4---|
D|-----------------|-----------------|-----------------|-----------------|

G|-----------------|-----------------|-----------------|----------------|
D|-----------------|-----------------|-----------------|----------------|
A|-----------------|-----------------|-----------------|----------------|
D|-4---4---4---4---|-4---4---4---4---|-4---4---4---4---|-4---4---4---4--|

G|-----------------|-----------------|-----------------|-----------------|
D|-----------------|-----------------|-----------------|-----------------|
A|-4---4---4---4---|-4---4---4---4---|-4---4---4---4---|-----------------|
D|-----------------|-----------------|-----------------|-6---6---6---6---|

G|-----------------|-----------------|-----------------|----------------|
D|-----------------|-----------------|-----------------|----------------|
A|-----------------|-----------------|-----------------|----------------|
D|-4---4---4---4---|-4---4---4---4---|-4---4---4---4---|-4---4---4---4--|

G|-----------------|-----------------|-----------------|-----------------|
D|-----------------|-----------------|-----------------|-----------------|
A|-----------------|-----------------|-----------------|-----------------|
D|-8~--------------|-----------------|-----------------|-----------------|

Happy playing!

************************************

| x   Dead note
| g   Grace note
| (n) Ghost note
| h   Hammer-on
| p   Pull-off
| r   Release
| >   Accented note
| t   Tapping
| b   Bend
| br  Bend release
| pb  Pre-bend
| pbr Pre-bend release
| /   Slide up
| \   Slide down
| ~   Vibrato
| s   Slap
| P   Pop
| PM  Palm mute
| TR  Trill
| N   Tremolo

************************************

            
            
Suggest correction
Creating personal tab
Creating personal tab
You can edit any tab online and save it as your Personal.

You can edit, replace or remove any tab part or add personal notes – all changes will be seen only by you.

Personal tabs can be accessed anytime from any device, even offline.
Learn more »
Give kudos to tab author, rate the tab!
1 2 3 4 5
comments
print report bad tab
guest
You may want to rate the tab now too:
select rating
Wanna post a correction for this tab? Suggest correction