Oops, an error
Loading. Please wait.

I Want Candy tab

version 1
version 1

Whole song

Video

50,351 views 60 this week
3 commentsread comments
1 2 3 4 5
x 18
add to favorites
×
Save as Personal and add changes to this tab that will be seen only by you. Learn more ›
×
You can save this tab as Personal to edit and correct it or add notes. All changes will be seen only by you. Learn more »
launch autoscroll
font size
0
reset
how to read this tab
guitar tuner
edit
Autoscroll
slow
fast
+/-
esc
set tempo
stop
Author
Unregistered
Artist: Bow Wow Wow
Song: I Want Candy
(cover of the Strangeloves)

(play muted/distorted like this throughout the whole song)
e|----x-x-x--x-x--x-x-x--xxxx--x-x--x-x-x----|
B|----x-x-x--x-x--x-x-x--xxxx--x-x--x-x-x----|
G|----x-x-x--x-x--x-x-x--xxxx--x-x--x-x-x----|
D|----x-x-x--x-x--x-x-x--xxxx--x-x--x-x-x----|
A|----x-x-x--x-x--x-x-x--xxxx--x-x--x-x-x----|
E|----x-x-x--x-x--x-x-x--xxxx--x-x--x-x-x----|

[lead]
e|----------------------------------------------------------------|
B|----------------------------------------------------------------|
G|--------------------------------9--11--12-11---9---12---11---9--|
D|------------------9--11--12-12----------------------------------|
A|-----9h10--12-12------------------------------------------------|
E|----------------------------------------------------------------|

e|-------------------------------|
B|-------------------------------|
G|---------------9---------------|
D|----12-11--12-----11-12--------|
A|-------------------------------|
E|-------------------------------|

e|-------------------------------------------------------------------|
B|-----10--12-10-----------------------------------------------------|
G|--12------------12--11--12--11--9--12-11--9--------------9---------|
D|---------------------------------------------12-11--12------11--12-|
A|-------------------------------------------------------------------|
E|-------------------------------------------------------------------|


e|-----------------------------------------------------|
B|-------8--10\------------8--10\----------------------|
G|-------9--11\------------9--11\----------------------|
D|-----------------------------------------------------|
A|-----------------------------------------------------|
E|-----------------------------------------------------|

I know a guy who's tough but sweet
He's so fine, he can't be beat
He's got everything that I desire
Sets the summer sun on fire
I want candy, I want candy

Go to see him when the sun goes down
Ain't no finer boy in town
You're my guy, just what the doctor ordered
So sweet, you make my mouth water

I want candy, I want candy

Candy on the beach, there's nothing better
But I like candy when it's wrapped in a sweater
Some day soon I'll make you mine,
Then I'll have candy all the time.

 undefined   undefined More...    Sarah Michelle GellarPhoto Gallery   [Close]    Sarah Michelle 
Gallery   [Close]   Yahoo! Movies Exclusive

************************************

| x  Dead note
| h  Hammer-on
| \  Slide down

************************************

            
            
Suggest correction
Creating personal tab
Creating personal tab
You can edit any tab online and save it as your Personal.

You can edit, replace or remove any tab part or add personal notes – all changes will be seen only by you.

Personal tabs can be accessed anytime from any device, even offline.
Learn more »
comments
print report bad tab
3 comments total.
0 reply
chopsuey2468 10 Jun 26, 2007 09:22 AM

im sry but i love u right now i luv this tab thank god 4 u u rock 5*'s amazing...ive been playing this strai for weeks now

0 reply
changobilly22 52 Dec 03, 2010 04:58 PM

i was watchin the video after a looked this tab up
and i think its played like this
but yours sounds exact!!!
so hats of to you : )

E|---------------------------------------------
B|-----------------5-7-8-7-5-8-7-5-------5-----
G|---------4-5-7-7-----------------7-6-7---6-7-
D|-4h5-7-7-------------------------------------
A|---------------------------------------------
E|---------------------------------------------

0 reply
charlescarver 42 Mar 16, 2013 10:58 AM

The third segment should be this:

e-------------------------------------------------------------------------|
b-----10--12-10--------------10-------------------------------------------|
g--12------------12--11--12-----12--11--12--11--9--------------9----------|
d--------------------------------------------------12-11--12------11--12--|
a-------------------------------------------------------------------------|
e-------------------------------------------------------------------------|

As you can hear in the video: http://www.youtube.com/watch?v=aMICD3aMZpw

guest
Wanna post a correction for this tab? Suggest correction