Oops, an error
Loading. Please wait.

Boulevard tab

version 2
version 2

Whole song

599 views 1 this week
3 commentsread comments
1 2 3 4 5
1 last vote to show rating
add to favorites
×
Save as Personal and add changes to this tab that will be seen only by you. Learn more ›
×
You can save this tab as Personal to edit and correct it or add notes. All changes will be seen only by you. Learn more »
launch autoscroll
font size
0
reset
how to read this tab
guitar tuner
edit
Autoscroll
slow
fast
+/-
esc
set tempo
stop
Author
Song Name: Boulevard
Band Name: Bowling For Soup
Album: Let's Do It For Johnny
Running Time: 3:32
Tuning: Standard
Palm Mute: *


Intro
Guitar 1
e 532-----532-----532---------------|
B ---2-------2-------2--------------|
G ----------------------4-2------99-|
D -------------------------------99-|
A -------------------------------77-|
E ----------------------------------|

Guitar 2
e ----------------------------------|
B ----------------------------------|
G ----------------44447777-------99-|
D ----------------44447777777777799-|
A ----------------22225555777777777-|
E ------------------------5555555---|

Verse
Guitar 1
e -------------------------------------|
B -------------------------------------|
G ----------------44447777-------99----|   x2
D 777777774444444444447777777777799
A 777777774444444422225555777777777
E 5555555522222222--------5555555
  ****************
Verse 1
Back there somewhere, I can hear her calling out, I've got so much I can tell her.
She knows I miss her, I know she thinks about me too, I just cannot wait to kiss her.

Verse 2
I think she likes me, I can see it when she laughs, she won't say it but I see it.
She loves to wake me, just to see if i'm asleep, just to tell me to move closer

Guitar 2 Verse
e ------------------------------------|
B ------------------------------------|
G ----------------4---7----------77---|
D 7-------4-------4---7---7------77---|  x2
A 7-------4-------2---5---7------55---|
E 5-------2---------------5-----------|

Pre-Chorus
Guitar 1 & 2

//Pickslide//
e -------------------------------------------------|
B -------------------------------------------------|
G ----------------7777777799999999-----------------|
D 4-4-4-4-7777777777777777999999997777777777777-77-|
A 4-4-4-4-7777777755555555777777777777777777777-77-|
E 2-2-2-2-55555555----------------5555555555555-54-|
On the Boulevard we dance, I'll tell her if i get the chance, just what all this means to me.

e ---------------------------------|
B ---------------------------------|
G ----------------7777777799999999-|
D 4-4-4-4-777777777777777799999999-|
A 4-4-4-4-777777775555555577777777-|
E 2-2-2-2-55555555-----------------|
                  **************
Maybe I'll just say, "We could run away and never look back, and never doubt it."

Chorus
Guitar 1 & 2

e ----------------------------------|
B ----------------------------------|
G 77779999--------77779999-------99-|
D 777799997777444477779999777777799
A 555577777777444455557777777777777
E --------55552222--------5555555--
You don't owe me anything, I owe everything to you, take my hand and hold on.

Bridge
Guitar 1
e 532-----532-----532-------------|
B ---2-------2-------2------------|
G ----------------------4-2-------|
D --------------------------------| x2  2nd time //Pickslide// at the end
A --------------------------------|
E --------------------------------|

Guitar 2
e --------------------------------|
B --------------------------------|
G ----------------4---7-----------|
D 7-------4-------4---7---7-------|
A 7-------4-------2---5---7-------|
E 5-------2---------------5-------|

e --------------------------------|
B --------------------------------|
G ----------------44447777--------|
D 7777777744444444444477777777777-   //Pickslide//
A 7777777744444444222255557777777-
E 5555555522222222--------5555555-
  ** *** *** *** *
Pre-Chorus Ver. 2
Guitar 1 & 2
e -------------------------------------------------|
B -------------------------------------------------|
G ----------------7777777799999999-----------------|
D 4------67777777777777777999999997777777777777-77-|
A 4------67777777755555555777777777777777777777-77-|
E 2------455555555----------------5555555555555-54-|
On the Boulevard we dance, I'll tell her if I get the chance, just what all this means to me.

e ---------------------------------| (notice that the downbeats are on
B ---------------------------------|   2 and 4 during that part...listen
G ----------------7777777799999999-|   to the song)
D -4-4-4-4777777777777777799999999-|
A -4-4-4-4777777775555555577777777-|
E -2-2-2-255555555-----------------|
                   ******* *****
Maybe I'll just say, "We could run away and never look back, and never doubt it."

e --------------------|
B --------------------|
G 7777777799999999----|
D 7777777799999999----|
A 5555555577777777----|
E --------------------|
   *******
Don't ever look back, don't ever doubt it. Ooooh...

Chorus Ver. 2 Guitar 1 & 2
e --------------------------------|
B --------------------------------|
G 77779999--------77779999--------|   x2
D 7777999977774444777799997777777-
A 5555777777774444555577777777777-
E --------55552222--------5555555-
You don't owe me anything, I owe everything to you, take my hand and hold on.

Outro Guitar 1 & 2
e ----------------------|   End on that D power chord...gotta love bowling
B ----------------------|   for Soup's leading tones...that never ever
G -----7----------------|   resolve.
D 7427-7----------------|
A 7427-5----------------|
E 5205------------------|


Song Order
1.Intro
2.Verse 1 x2
3.Pre-Chorus
4.Chorus
5.Verse 2 x2
6.Pre-Chorus
7.Chorus
8.Bridge (guitar part 1 x2)
9.Pre-Chorus Ver. 2
10.Chorus Ver. 2 x2
11. Outro

I'm only fifteen and this is the first tab I've ever written. This is a great song and 
it like bfs would, because they rock!

            
            
Suggest correction
Creating personal tab
Creating personal tab
You can edit any tab online and save it as your Personal.

You can edit, replace or remove any tab part or add personal notes – all changes will be seen only by you.

Personal tabs can be accessed anytime from any device, even offline.
Learn more »
Give kudos to tab author, rate the tab!
1 2 3 4 5
comments
print report bad tab
3 comments total.
0 reply
ymiadrummer 51 Nov 22, 2006 04:17 PM

umm...the intro really goes like this

e------------------------------
B-532----532----532------------
G----2------2------2-----------
D-----------------------4-2----
A------------------------------
E------------------------------
i don't know what i was thinking...it's just a line off, though

+1 reply
mostguitar 127 Mar 27, 2008 03:54 PM

//Pickslide//
e -------------------------------------------------|
B -------------------------------------------------|
G ----------------7777777799999999-----------------|
D 4-4-4-4-7777777777777777999999997777777777777-77-|
A 4-4-4-4-7777777755555555777777777777777777777-77-|
E 2-2-2-2-55555555----------------5555555555555-54-|
On the Boulevard we dance, I'll tell her if i get the chance, just what all this means to me.

there should be a G# in between the F# and the A. like this
B -------------------------------------------------|
G -----------------7777777799999999-----------------|
D 4-4-4-4-67777777777777777999999997777777777777-77-|
A 4-4-4-4-67777777755555555777777777777777777777-77-|
E 2-2-2-2-455555555----------------5555555555555-54-|

other than that its great. better than the other one, i dont know why that one got stars and this one didnt.

0 reply
colinbreslin9 19 Nov 17, 2015 08:59 PM

love it!!!!!!!!!!

guest
You may want to rate the tab now too:
select rating
Wanna post a correction for this tab? Suggest correction