Oops, an error
Loading. Please wait.

Cold Shower Tuesday tab

1,964 views 1 this week
2 commentsread comments
1 2 3 4 5
1 last vote to show rating
add to favorites
×
Save as Personal and add changes to this tab that will be seen only by you. Learn more ›
×
You can save this tab as Personal to edit and correct it or add notes. All changes will be seen only by you. Learn more »
launch autoscroll
font size
0
reset
how to read this tab
guitar tuner
edit
Autoscroll
slow
fast
+/-
esc
set tempo
stop
Song: Cold Shower Tuesday
Artist: Bowling for Soup
Tabbed by: Deadmeat (the_xxxxx@hotmail.com)

* = Play 8 times
pm= Palm muted
> = Accent on this note/chord


Standard tuning (E A D G B e)



-------
|Intro|
-------
Guitar 2                   2x Guitar 1 (2nd time only)
e|--------------------------||-------------------------------------||
B|--------------------------||----787-------787-------78-7-----7---||
G|-7-----7-----7-----------#||-79-----97-79-----97-79------9-7---9-||
D|-7--5--7--5--7--5--2--7--#||-------------------------------------||
A|-5--5--5--5--5--5--2--7---||-------------------------------------||
E|-*--3--*--3--*--3--0--5---||-------------------------------------||
      *     *     *  *  *
-------
|Verse|
-------
                          2x
e|------------------------||
B|------------------------||
G|--7--7--7---------77---#||
D|--7--7--7--555555-77-7-#||
A|--5--5--5--555555-55-7--||
E|--*--*--*--333333----5--||
   pm.......           *

------------
|Pre-chorus|
------------

e|--------------||
B|--------------||
G|--------------||
D|--5--7--4--2--||
A|--5--7--4--2--||
E|--3--5--2--0--||
    *  *  *

--------
|Chorus|
--------

e|--------------|--------------||
B|--------------|--------------||
G|--7-----------|--7-----------||
D|--7--9--5--7--|--7--9--5--7--||
A|--5--9--5--7--|--5--9--5--7--||
E|--*--7--3--5--|--*--7--3--5--||
       *  *  *        *  *  *

-------
|Intro|
-------
Guitar 2                      Guitar 1
e|--------------------------||-------------------------------------||
B|--------------------------||----787-------787-------78-7-----7---||
G|-7-----7-----7-----------#||-79-----97-79-----97-79------9-7---9-||
D|-7--5--7--5--7--5--2--7--#||-------------------------------------||
A|-5--5--5--5--5--5--2--7---||-------------------------------------||
E|-*--3--*--3--*--3--0--5---||-------------------------------------||
      *     *     *  *  *
-------
|Verse|
-------
                          2x
e|------------------------||
B|------------------------||
G|--7--7--7---------77---#||
D|--7--7--7--555555-77-7-#||
A|--5--5--5--555555-55-7--||
E|--*--*--*--333333----5--||
   pm.......           *

------------
|Pre-chorus|
------------

e|--------------||
B|--------------||
G|--------------||
D|--5--7--4--2--||
A|--5--7--4--2--||
E|--3--5--2--0--||
    *  *  *

--------
|Chorus|
--------

e|--------------|--------------|--------------||
B|--------------|--------------|--------------||
G|--7-----------|--7-----------|--7-----------||
D|--7--9--5--7--|--7--9--5--7--|--7--9--5--7--||
A|--5--9--5--7--|--5--9--5--7--|--5--9--5--7--||
E|--*--7--3--5--|--*--7--3--5--|--*--7--3--5--||
       *  *  *        *  *  >        *  *  *

--------
|Bridge|
--------

e|------------------------------|-------------------||
B|------------------------------|-------------------||
G|--7---------------7-----------|--7----------------||
D|--7-------5-------7-------7---|--7--5--7-7-7-7-7--||
A|--5-------5-------5-------7---|--5--5--7-7-7-7-7--||
E|----------3---------------5---|--*--3--5-5-5-5-5--||
                                      *  > * * * *
                                  pm....   ........

--------
|Chorus|
--------

e|--------------|--------------|--------------||
B|--------------|--------------|--------------||
G|--7-----------|--7-----------|--7-----------||
D|--7--9--5--7--|--7--9--5--7--|--7--9--5--7--||
A|--5--9--5--7--|--5--9--5--7--|--5--9--5--7--||
E|--*--7--3--5--|--*--7--3--5--|--*--7--3--5--||
       *  *  *        *  *  >        *  *  *

-------
|Outro|
-------

e|---------------------------------|---------------------------||
B|---------------------------------|---------------------------||
G|-7-7-7-7-------------------------|-7-7-7-7-------------------||
D|-7-7-7-7-9-9-9-9-5-5-5-5-7-7-7-7-|-7-7-7-7-9-9-9-9-5-5-5-5-7-||
A|-5-5-5-5-9-9-9-9-5-5-5-5-7-7-7-7-|-5-5-5-5-9-9-9-9-5-5-5-5-7-||
E|---------7-7-7-7-3-3-3-3-5-5-5-5-|---------7-7-7-7-3-3-3-3-5-||
                                                             >

Her finger traced I love you
In the palm of my hand
That's still the only time
My belly's ever hit the floor like that

Your feet in my lap
We drove the past
Knowing we would turn around again

Tell her I'm not sorry
Mention my Ferrari
Just don't tell her that
I miss her
She wanted in
I wanted out
And that's the last thing we talked about

Remember how our hands matched
Love lines, same size
I guess I should have checked
To the lifelines were in line

I called on the phone
You still felt alone
And talked about the songs that made you cry

Campfire cookies
And John Hughes movies
Jr. mints & cold shower Tuesdays
November shivers and rearview mirrors
And the little things like that

            
            
Suggest correction
Creating personal tab
Creating personal tab
You can edit any tab online and save it as your Personal.

You can edit, replace or remove any tab part or add personal notes – all changes will be seen only by you.

Personal tabs can be accessed anytime from any device, even offline.
Learn more »
Give kudos to tab author, rate the tab!
1 2 3 4 5
comments
print report bad tab
2 comments total.
+1 reply
Bodychecker 10 Apr 24, 2003 08:00 PM

In the lyrics, on the 4th verse. it goes "I guess I should have checked to see the life lines were in line" not "checked to the lifelines were in lines".

0 reply
mostguitar 127 Dec 01, 2006 08:19 PM

good tab, theres just a bit more to the lead intro part, but otherwise, good job!

guest
You may want to rate the tab now too:
select rating
Wanna post a correction for this tab? Suggest correction