Oops, an error
Loading. Please wait.

Critically Disdained bass

98 views 1 this week
no commentswrite comment
1 2 3 4 5
3 more votes to show rating
add to favorites
×
Save as Personal and add changes to this tab that will be seen only by you. Learn more ›
×
You can save this tab as Personal to edit and correct it or add notes. All changes will be seen only by you. Learn more »
launch autoscroll
font size
0
reset
guitar tuner
edit
Autoscroll
slow
fast
+/-
esc
set tempo
stop
-------------------------------------------------------------------------------
                             Critically Disdained - Bowling For Soup
-------------------------------------------------------------------------------
Tabbed by: Chino Loves Punk
E-mail: chinolovespunk@gmail.com
Youtube Channel: https://www.youtube.com/channel/UCzHXp4X6OEN08TOI7q_hzqg

Intro: Acoustic guitar, if you want to play it, play the verse and then the chorus

Pre-Verse(And then meet us at the bar and we'll let you buy)
G|--------------------------------------------------------------|
D|--------------------------------------------------------------|
A|-5-----7------------------------------------------------------|
E|-------------5-5-5-0-0-0-5-5-5-0-0-0-5-5-5-0-0-0-5-5-5-0-0-0--|

Verse(Take a number, take a seat...)
G|-----------------------------------------------------------------------------------------------|
D|-----------------------------------------------------------------------------------------------|
A|--------------------------7-7-7-7-7-7-7-7-7-7-7-7---------------------5-5-5-5-5-5-5-5-5-5-5-5--|
E|-5-5-5-5-5-5-5-5-5-5-5-5--------------------------2-2-2-2-2-0-0-0-0-0--------------------------|

G|--------------------------------------------------------------------------------------|
D|--------------------------------------------------------------------------------------|
A|-------------------------7-7-7-7-7-7-7-7-7-7-7-7---------------------5---5---5---5----|
E|-5-5-5-5-5-5-5-5-5-5-5-5-------------------------2-2-2-2-2-0-0-0-0-0---5---5---5---5--|

Chorus(We’re not here to change the world...)
G|----------------------------------------------------------------------------------------------------------|
D|----------------------------------------------------------------------------------------------------------|
A|-5-5-5-5-5-5-5-7-7-7-7-7-7-7-----------------------------5-5-5-5-5-7-7-7-7-7-9-9-7/9-7/9-9-9-9-9-9-7-7-7--|
E|-----------------------------5-5-5-5-5-5-5-2-2-2-2-2-2-2--------------------------------------------------|

G|-----------------------------------------------|
D|-----------------------------------------------|
A|-5-5-5-5-5-5-5-7-7-7-7-7-7-7-------------------|
E|------------------------------5-5-4-4-2~-------|

Intro

Bridge(Hey jealousy...)
G|----------------------------------------------------------------------------------------------|
D|----------------------------------------------------------------------------------------------|
A|-----------------2-2-2-2-2-2-2-2-5-5-5-5-5-5-5-7---------------5-5-5-5-5-5-5-7----------------|
E|-2-2-2-2-2-2-2-2---------------------------------5-5-5-5-5-5-7-----------------5-5-5-5-5-5-5--|

G|--------------------------------------4-4-4-4------------------------------------------------------------|
D|--------------4-4-4-4---------------4---------4---------------------------------------------7-7-7-7-7-7--|
A|------------4---------4-2-2-2-2-2-2-------------5-5-5-5-5-5-7---------------5-5-5-5-5-5-5-7--------------|
E|-2-2-2-2-2-2--------------------------------------------------5-5-5-5-5-5-7------------------------------|

(For being happy, smiling, drinking...)
G|--------------------------------------------------------------------------------------|
D|--------------------------------------------------------------------------------------|
A|-2-2-2-2-2-2-2-2-0-2-2-2-2-2-2-2-2-0-2-2-2-2-2-2-2-2-2-0------------------------------|
E|---------------------------------------------------------0~~~~------------------------|

Final Chorus(We’re not here to change the world...)

G|-----------------------------------------------------------------------------------------------------------|
D|-----------------------------------------------------------------------------------------------------------|
A|-7-7-7-7-7-9-9-9-9-9-----------------------------7-7-7-7-7-9-9-9-9-9-11-11-9/11-9/11-11-11-11-11-11-9-9-9--|
E|---------------------7-7-7-7-7-7-7-4-4-4-4-4-4-4-----------------------------------------------------------|

G|------------------------------------------------------------------------------------------------------------|
D|---------------------------------------------4/6-4/6-6------------------------------------------------------|
A|-7-7-7-7-7-7-7-9-9-9-9-9-9-9---------------------------7-7-7-7-7-7-7-9-9-9-9-9-9-9-7-7-7-7-7-7-9-9-9-9-9-9--|
E|-----------------------------7-7-6-6-4-4-4-4----------------------------------------------------------------|

G|-------------------------------------------------|
D|------------------------------1--4---------------|
A|-7-----9------2----2----2---2-------2------------|
E|-----------------2----2---2----------------------|

===============================================================================

            
            
Suggest correction
Creating personal tab
Creating personal tab
You can edit any tab online and save it as your Personal.

You can edit, replace or remove any tab part or add personal notes – all changes will be seen only by you.

Personal tabs can be accessed anytime from any device, even offline.
Learn more »
Give kudos to tab author, rate the tab!
1 2 3 4 5
comments
print report bad tab
guest
You may want to rate the tab now too:
select rating
Wanna post a correction for this tab? Suggest correction